Oops, an error
Loading. Please wait.

マイアミ午前5時 Bass Tab

16 views 1 this week
no commentswrite comment
1 2 3 4 5
3 more votes to show rating
add to favorites
launch autoscroll
font size
0
reset
guitar tuner
Autoscroll
slow
fast
+/-
esc
set tempo
stop
Help us to improve Ultimate-Guitar.com Take our survey!
×
Author
Difficulty
novice
Song : https://www.youtube.com/watch?v=_-ZmIspBzPs


[Intro]

G|-------------------|-------------------|-------------------|-------------------| 
D|-------------------|-------------------|-------------------|-------------------|
A|-------------------|-------------------|-------------------|-------------------|
E|--3-3-3-3-3-3-3-3--|--3-3-3-3-3-3-3-3--|--3-3-3-3-3-3-3-3--|--3-3-3-3-3-3-3-3--|


G|-------------------|-------------------|-------------------|-------------------| 
D|-------------------|-------------------|-------------------|-------------------|
A|-------------------|-------------------|-------------------|-------------------|
E|--3-3-3-3-3-3-3-3--|--3-3-3-3-3-3-3-3--|--3-3-3-3-3-3-3-3--|--3-3-3-3-3-3-3-3--|


G|-------------------|-------------------|
D|-------------------|-------------------|
A|-------------------|-------------------|
E|--3-3-3-3-3-3-3-3--|--3-3-3-3-3-3-3-3--|


[Verse] (x2)

G|-------------------|-------------------|-------------------|-------------------| 
D|-------------------|-------------------|-------------------|-------------------|
A|-------------------|-------------------|-------------------|-------------------|
E|--3-3-3-3-3-3-3-3--|--3-3-3-3-3-3-3-3--|--3-3-3-3-3-3-3-3--|--3-3-3-3-3-3-3-3--|


G|-------------------|----------------|----------------|-------------------|
D|-------------------|--2-2-2-2-2-2-2-|----------------|-------------------|
A|-------------------|----------------|-0--0-0-0-0-0-0-|-5--5-5-5-5-5-5-5--|
E|--3-3-3-3-3-3-3-3--|----------------|----------------|-------------------|


[Verse]

G|-------------------|-------------------|-------------------|-------------------|
D|-------------------|-------------------|-------------------|--2-2-2-2-2-2-2-2--|
A|--3-3-3-3-3-3-3-3--|--3-3-3-3-3-3-3-3--|--2-2-2-2-2-2-2-2--|-------------------|
E|-------------------|-------------------|-------------------|-------------------|


G|-------------------|-------------------|-------------------|---------------|
D|-------------------|-------------------|-------------------|---------------|
A|--0-0-0-0-0-0-0-0--|--5-5-5-5-5-5-5-5--|-------------------|--5-5-5--------|
E|-------------------|-------------------|--3-3-3-3-3-3-3-3--|--------3--3-3-|


G|-------------------|-------------------|-------------------|-------------------|
D|-------------------|-------------------|-------------------|--2-2-2-2----------|
A|-3--3-3-3-3-3-3-3--|--3-3-3-3-3-3-3-3--|--2-2-2-2-2-2-2-2--|-------------------|
E|-------------------|-------------------|-------------------|----------0-0-0-0--|


G|-------------------|-------------------|------------------|---------------|
D|-------------------|-------------------|------------------|---------------|
A|-------------------|-------------------|--5-5-5-5-5-5-5-5-|-5--5-5----5\--|
E|--5-5-5-5-5-5-5-5--|--5-5-5-5-5-5-5-5--|------------------|---------------|


[Chorus] (x2)

G|------------------|-------------------|-------------------|-------------------|
D|------------------|-------------------|--2-2-2-2-2-2-2-2--|--2-2-2-2-2-2-2-2--|
A|------------------|-------------------|-------------------|-------------------|
E|--3-3-3-3-3-3-3-3-|--3-3-3-3-3-3-3-3--|-------------------|-------------------|


G|-------------------|-------------------|-------------------|-------------------|
D|-------------------|-------------------|-------------------|-------------------|
A|--0-0-0-0-0-0-0-0--|--0-0-0-0-0-0-0-0--|--5-5-5-5-5-5-5-5--|--5-5-5-5-5-5-5-5--|
E|-------------------|-------------------|-------------------|-------------------|


[Intro repeat]

G|-------------------|-------------------|-------------------|-------------------| (x2)
D|-------------------|-------------------|-------------------|-------------------|
A|-------------------|-------------------|-------------------|-------------------|
E|--3-3-3-3-3-3-3-3--|--3-3-3-3-3-3-3-3--|--3-3-3-3-3-3-3-3--|--3-3-3-3-3-3-3-3--|


[Verse] 

G|-------------------|-------------------|-------------------|-------------------| 
D|-------------------|-------------------|-------------------|-------------------|
A|-------------------|-------------------|-------------------|-------------------|
E|--3-3-3-3-3-3-3-3--|--3-3-3-3-3-3-3-3--|--3-3-3-3-3-3-3-3--|--3-3-3-3-3-3-3-3--|


G|-------------------|----------------|----------------|-------------------|
D|-------------------|--2-2-2-2-2-2-2-|----------------|-------------------|
A|-------------------|----------------|-0--0-0-0-0-0-0-|-5--5-5-5-5-5-5-5--|
E|--3-3-3-3-3-3-3-3--|----------------|----------------|-------------------|


[Verse]

G|-------------------|-------------------|-------------------|-------------------|
D|-------------------|-------------------|-------------------|--2-2-2-2-2-2-2-2--|
A|--3-3-3-3-3-3-3-3--|--3-3-3-3-3-3-3-3--|--2-2-2-2-2-2-2-2--|-------------------|
E|-------------------|-------------------|-------------------|-------------------|


G|-------------------|-------------------|-------------------|---------------|
D|-------------------|-------------------|-------------------|---------------|
A|--0-0-0-0-0-0-0-0--|--5-5-5-5-5-5-5-5--|-------------------|--5-5-5--------|
E|-------------------|-------------------|--3-3-3-3-3-3-3-3--|--------3--3-3-|


G|-------------------|-------------------|-------------------|-------------------|
D|-------------------|-------------------|-------------------|--2-2-2-2----------|
A|-3--3-3-3-3-3-3-3--|--3-3-3-3-3-3-3-3--|--2-2-2-2-2-2-2-2--|-------------------|
E|-------------------|-------------------|-------------------|----------0-0-0-0--|


G|-------------------|-------------------|------------------|---------------|
D|-------------------|-------------------|------------------|---------------|
A|-------------------|-------------------|--5-5-5-5-5-5-5-5-|-5--5-5----5\--|
E|--5-5-5-5-5-5-5-5--|--5-5-5-5-5-5-5-5--|------------------|---------------|


[Chorus] (x2)

G|------------------|-------------------|-------------------|-------------------|
D|------------------|-------------------|--2-2-2-2-2-2-2-2--|--2-2-2-2-2-2-2-2--|
A|------------------|-------------------|-------------------|-------------------|
E|--3-3-3-3-3-3-3-3-|--3-3-3-3-3-3-3-3--|-------------------|-------------------|


G|-------------------|-------------------|-------------------|-------------------|
D|-------------------|-------------------|-------------------|-------------------|
A|--0-0-0-0-0-0-0-0--|--0-0-0-0-0-0-0-0--|--5-5-5-5-5-5-5-5--|--5-5-5-5-5-5-5-5--|
E|-------------------|-------------------|-------------------|-------------------|


[Instrumental] 

G|-------------------|-------------------|-------------------|-------------------|
D|-------------------|-------------------|-------------------|--2-2-2-2-2-2-2-2--|
A|-------------------|-------------------|--5-5-5-5-5-5-5-5--|-------------------|
E|--3-3-3-3-3-3-3-3--|--3-3-3-3-3-3-3-3--|-------------------|-------------------|


G|-------------------|-------------------|-------------------|-------------------|
D|-------------------|-------------------|-------------------|-------------------|
A|--0-0-0-0-0-0-0-0--|--0-0-0-0-0-0-0-0--|--5-5-5-5-5-5-5-5--|--5-5-5-5-5-5-5-5--|
E|-------------------|-------------------|-------------------|-------------------|


G|-------------------|-------------------|-------------------|-------------------|
D|-------------------|-------------------|-------------------|--2-2-2-2-2-2-2-2--|
A|-------------------|-------------------|--5-5-5-5-5-5-5-5--|-------------------|
E|--3-3-3-3-3-3-3-3--|--3-3-3-3-3-3-3-3--|-------------------|-------------------|


G|-------------------|-------------------|-------------------|-------------------|
D|-------------------|-------------------|-------------------|-------------------|
A|--0-0-0-0-0-0-0-0--|--0-0-0-0-0-0-0-0--|--5-5-5-5-5-5-5-5--|--5-5-5-5-5-5-5-5--|
E|-------------------|-------------------|-------------------|-------------------|


G|------------------|---------------|
D|------------------|---------------|
A|--5-5-5-5-5-5-5-5-|-5--5-5----5\--|
E|------------------|---------------|


[Chorus] (x2)

G|------------------|-------------------|-------------------|-------------------|
D|------------------|-------------------|--2-2-2-2-2-2-2-2--|--2-2-2-2-2-2-2-2--|
A|------------------|-------------------|-------------------|-------------------|
E|--3-3-3-3-3-3-3-3-|--3-3-3-3-3-3-3-3--|-------------------|-------------------|


G|-------------------|-------------------|-------------------|-------------------|
D|-------------------|-------------------|-------------------|-------------------|
A|--0-0-0-0-0-0-0-0--|--0-0-0-0-0-0-0-0--|--5-5-5-5-5-5-5-5--|--5-5-5-5-5-5-5-5--|
E|-------------------|-------------------|-------------------|-------------------|


[Outro]

G|-------------------|-------------------|-------------------|-------------------| (x3)
D|-------------------|-------------------|-------------------|-------------------|
A|-------------------|-------------------|-------------------|-------------------|
E|--3-3-3-3-3-3-3-3--|--3-3-3-3-3-3-3-3--|--3-3-3-3-3-3-3-3--|--3-3-3-3-3-3-3-3--|



***************************

| \ : slide down

***************************

in regular sequence!
Suggest correction
Give kudos to tab author, rate the tab!
1 2 3 4 5
comments
print report bad tab
guest
You may want to rate the tab now too:
select rating
Wanna post a correction for this tab? Suggest correction