Oops, an error
Loading. Please wait.

あなただけ I Love You Bass Tab

22 views 1 this week
no commentswrite comment
1 2 3 4 5
3 more votes to show rating
add to favorites
launch autoscroll
font size
0
reset
guitar tuner
Autoscroll
slow
fast
+/-
esc
set tempo
stop
Help us to improve Ultimate-Guitar.com Take our survey!
×
Author
Difficulty
novice
Song : https://www.youtube.com/watch?v=AolUz5qKtrI

[Intro]
G|----------------|----------------|----------------|----------------| (x2)
D|------7-7-------|------7-7-------|------7-7-------|----------------|
A|----------------|----------------|----------------|--------7-7-7-7-|
E|--5-------------|--5-------------|--5-------------|--7---7---------|


G|----------------|----------------|----------------|----------------|
D|----------------|----------------|----------------|----------------|
A|--9-------------|--7-------------|--9-------------|--7-------------|
E|----------------|----------------|----------------|----------------|

[Verse]
G|--------------|-------------|-------------|------------| (x2)
D|--------4---4-|-------4---4-|-------------|------------|
A|--4---4-------|-4---4-------|-5---5-5---5-|-4---4----7-|
E|--------------|-------------|-------------|-------7----|


G|-------------|-------------|-------------|-----------------|
D|-------------|-------------|-------------|------7/9--7-----|
A|-7---7-------|-7---7-------|-5---5-------|-5--5--------9-7-|
E|-------5---5-|-------5---5-|-------5---5-|-----------------|


G|-------------|-------------|-------------|---------------|
D|-------------|-------------|-------------|-------2--2--2-|
A|-5---5-5-----|-------------|-3---3-3---3-|-2---2---------|
E|-----------5-|-3---3-3---3-|-------------|---------------|

[Chorus]
G|----------------|----------------|----------------|----------------| (x2)
D|------7-7-------|------7-7-------|------7-7-------|----------------|
A|----------------|----------------|----------------|--------7-7-7-7-|
E|--5-------------|--5-------------|--5-------------|--7---7---------|


G|----------------|----------------|----------------|----------------|
D|----------------|----------------|----------------|----------------|
A|--9-------------|--7-------------|--9-------------|--7-------------|
E|----------------|----------------|----------------|----------------|

[Verse]
G|--------------|-------------|-------------|-------------| (x2)
D|--------4---4-|-------4---4-|-------------|-------------|
A|--4---4-------|-4---4-------|-5---5-5---5-|-4---4----7--|
E|--------------|-------------|-------------|-------7-----|


G|-------------|-------------|-------------|-----------------|
D|-------------|-------------|-------------|------7/9--7-----|
A|-7---7-------|-7---7-------|-5---5-------|-5--5--------9-7-|
E|-------5---5-|-------5---5-|-------5---5-|-----------------|


G|-------------|-------------|-------------|---------------|
D|-------------|-------------|-------------|-------2--2--2-|
A|-5---5-5-----|-------------|-3---3-3---3-|-2---2---------|
E|-----------5-|-3---3-3---3-|-------------|---------------|

[Chorus]
G|----------------|----------------|----------------|----------------| (x2)
D|------7-7-------|------7-7-------|------7-7-------|----------------|
A|----------------|----------------|----------------|--------7-7-7-7-|
E|--5-------------|--5-------------|--5-------------|--7---7---------|

[Instrumental]
G|----------------|----------------|----------------|-----------------| 
D|------7-7-------|------7-7-------|------7-7-------|------5/7--5-----|
A|----------------|----------------|----------------|-------------7-4-|
E|--5-------------|--5-------------|--5-------------|--5--------------|


G|-------------|------7/9--7-----|-------------|---------------|
D|-------------|----7--------7---|-------------|-------2-2-2-2-|
A|-5---5-5-----|-5-------------5-|-4---4-4---4-|-2---2---------|
E|-----------5-|-----------------|-------------|---------------|


G|----------------|----------------|----------------|----------------|
D|--4-------------|--2-------------|--4-------------|--2-------------|
A|----------------|----------------|----------------|----------------|
E|----------------|----------------|----------------|----------------|

[Verse]
G|--------------|-------------|-------------|------------| (x2)
D|--------4---4-|-------4---4-|-------------|------------|
A|--4---4-------|-4---4-------|-5---5-5---5-|-4---4----7-|
E|--------------|-------------|-------------|-------7----|


G|-------------|---------------|-------------|-----------------|
D|-------------|---------------|-------------|------7/9--7-----|
A|-7---7-------|-7---7-------4-|-5---5-------|-5--5--------9-7-|
E|-------5---5-|-------5-5-7---|-------5---5-|-----------------|


G|-------------|-------------|-------------|---------------|
D|-------------|-------------|-------------|-------2--2--2-|
A|-5---5-5-----|-------------|-3---3-3---3-|-2---2---------|
E|-----------5-|-3---3-3---3-|-------------|---------------|

[Chorus]
G|----------------|----------------|----------------|----------------| (x2)
D|------7-7-------|------7-7-------|------7-7-------|----------------|
A|----------------|----------------|----------------|--------7-7-7-7-|
E|--5-------------|--5-------------|--5-------------|--7---7---------|


G|--------------------|-----------------|
D|----5/7\----5/7\----|-----------------|
A|--------------------|-------------14\-|
E|-5-------5-------5--|-----------------|

[Outro]
G|----------------|----------------|----------------|----------------| (x4)
D|------7-7-------|------7-7-------|------7-7-------|----------------|
A|----------------|----------------|----------------|--------7-7-7-7-|
E|--5-------------|--5-------------|--5-------------|--7---7---------|

 
************************************

| /  Slide up
| \  Slide down 

************************************
Suggest correction
Give kudos to tab author, rate the tab!
1 2 3 4 5
comments
print report bad tab
guest
You may want to rate the tab now too:
select rating
Wanna post a correction for this tab? Suggest correction