Oops, an error
Loading. Please wait.

Глаза В Глаза Bass Tab

4 views 1 this week
no commentswrite comment
1 2 3 4 5
3 more votes to show rating
add to favorites
launch autoscroll
font size
0
reset
guitar tuner
Autoscroll
slow
fast
+/-
esc
set tempo
stop
Help us to improve Ultimate-Guitar.com Take our survey!
×
Author
Difficulty
Tabbed by: StevenBeaven90
E-mail: stevenkotelnikov@Gmail.com
Feel free to email me if you have any questions about this tab or any other of my tabs.


[Intro](0:00-0:33)(No bass)

[Verse I](0:33-1:06)
G|-------------------------------------------------------------------------6-|
D|-4--------2--------0-----------------4--------2--------0-------------------|
A|----------------------------4-----------------------------------4----------|
E|---------------------------------------------------------------------------|
B|---------------------------------------------------------------------------|

G|---------------------------------------------------------------------------|
D|---------------------------------------------------------------------------|
A|---------------------------------------------------------------------------|
E|-2--------0----------------------1----2--------0----------------------1----|
B|-------------------3--------2---------------------------3--------2---------|

[Chorus I}(1:06-1:24)
G|------2-------------------6-------------------2-------------------6--------|
D|----4-------------------7-------------------4-------------------7----------|
A|-0-------------------0-------------------0-------------------0-------------|
E|---------------------------------------------------------------------------|
B|------------3-------------------2-------------------3-------------------2--|

G|-5/6-----------------------------------------------------------------------|
D|---------------------------------------------------------------------------|
A|---------------------------------------------------------------------------|
E|---------------------------------------------------------------------------|
B|---------------------------------------------------------------------------|

[Verse II](1:24-1:39)
G|---------------------------------------------------------------------------|
D|---------------------------------------------------------------------------|
A|---------------------------------------------------------------------------|
E|-2--------0----------------------1----2--------0----------------------1----|
B|-------------------3--------2---------------------------3--------2---------|

[Chorus II](1:39-2:11)
G|------2-------------------6-------------------2-------------------6--------|
D|----4-------------------7-------------------4-------------------7----------|
A|-0-------------------0-------------------0-------------------0-------------|
E|---------------------------------------------------------------------------|
B|------------3-------------------2-------------------3-------------------2--|

G|------2-------------------6-------------------2-------------------6--------|
D|----4-------------------7-------------------4-------------------7----------|
A|-0-------------------0-------------------0-------------------0-------------|
E|---------------------------------------------------------------------------|
B|------------3-------------------2-------------------3-------------------2--|

[Bridge](2:11-2:26)
G|---------------------------------------------------------------------------|
D|---------------------------------------------------------------------------|
A|---------------------------------------------------------------------------|
E|-3--------1----------------------2----3--------1----------------------2----|
B|-------------------4--------3---------------------------4--------3---------|

[Chorus III]((2:26-2:58)
G|----0-3-------------------7-----------------0-3-------------------7--------|
D|------------------------8---------------------------------------8----------|
A|---------------------------------------------------------------------------|
E|-6-------------------6-------------------6-------------------6-------------|
B|------------4-------------------3-------------------4-------------------3--|

G|----0-3-------------------7-----------------0-3-------------------7--------|
D|------------------------8---------------------------------------8----------|
A|---------------------------------------------------------------------------|
E|-6-------------------6-------------------6-------------------6-------------|
B|------------4-------------------3-------------------4-------------------3--|

[Outroduction](2:58-3:32)(No bass)


************************************

| /   Slide up

************************************
Suggest correction
Give kudos to tab author, rate the tab!
1 2 3 4 5
comments
print report bad tab
guest
You may want to rate the tab now too:
select rating
Wanna post a correction for this tab? Suggest correction