Oops, an error
Loading. Please wait.

Мама-Мать Chords

67 views 1 this week
3 commentsread comments
1 2 3 4 5
x 5
add to favorites
launch autoscroll
font size
0
reset
transpose
0
reset
simplify chords
display chords
guitar tuner
Autoscroll
slow
fast
+/-
esc
set tempo
stop
Help us to improve Ultimate-Guitar.com Take our survey!
×
Author
Difficulty
novice
About this tab version
A piano part tabbed to play on guitar, along with chords. Was this info helpful? Yes No
Strumming
Whole song 140 bpm
1
&
2
&
3
&
4
&
Play
Is this strumming pattern correct? Yes No
Bm           x2443x
Aadd4        x02230
G            32003x
A            x02220
Bsus2sus4    x2242x
G Major      32043x
Asus4add12   x00220


[Intro]
   Bm                 Aadd4              G                  Aadd4       A
e|-------------2----|-------------0----|------------------|-----0------------|
B|-----3------------|-----3------------|-----3-------0----|-------3-----2----|
G|---4--------------|---2--------------|---0--------------|---2--------------|
D|------------------|------------------|------------------|------------------| x2
A|-2----------------|-0----------------|------------------|-0----------------|
E|------------------|------------------|-3----------------|------------------|


[Verse]
Bm                                         Aadd4
Каждый день я вспоминаю, как же ты меня любила,
                                  G
Одевала-обувала, на последнее кормила,
                                    Aadd4
Всё от сердца отрывала и сама недоедала,
                      A                          Bm
Мне так жаль, родная мама, что тебя со мной не стало.

Bm                                       Aadd4
Одевались в секонд-хенде на последние копейки,
                                     G
Нет отца, отец ушёл, любви села батарейка,
                                              Aadd4
Вот и всё, вдвоём остались — не живём, а доживаем,
                     A                     N.C.
Кто-то ест и пьёт вино, мы почти здесь умираем.


[Chorus]
Bm
Мама, мама, я не знаю, как мне без тебя жить,
Bsus2sus4
Мама, мама, что мне делать и как дальше мне быть?
G Major
И погас в твоих глазах этот вечный свет,
Asus4add12
Я не верю, что тебя больше рядом нет.


[Verse 2]
Bm                                      Aadd4
Воровал из дома вещи, приходил ночами пьяный,
                                              G
В те моменты я не думал, что же будет с моей мамой,
                                            Aadd4
Приходил домой с друзьями, ты на кухне запиралась,
                A                      Bm
Водка, драки и веселье, перед ними унижалась.

Bm                                           Aadd4
Бросил пить, нашёл работу, но ты сильно заболела,
                                        G
Ничего не помогало, ты как свечка прогорела,
                                           Aadd4
Я виню себя всё время, твою жизнь я сделал адом,
                   A                       N.C.
Но ничто мне не поможет, тебя нету больше рядом…


[Bridge]
Bm  Bsus2sus4  G Major  Asus4add12
Bm  Aadd4      G        Aadd4


[Chorus]
Bm
Мама, мама, я не знаю, как мне без тебя жить,
Bsus2sus4
Мама, мама, что мне делать и как дальше мне быть?
G Major
И погас в твоих глазах этот вечный свет,
Aadd4add12
Я не верю, что тебя больше рядом нет.
Bm
Мама, мама, я не знаю, как мне без тебя жить,
Bsus2sus4
Мама, мама, что мне делать и как дальше мне быть?
G Major
И погас в твоих глазах этот вечный свет,
Asus4add12
Я не верю, что тебя больше рядом нет.


[Outro]
   Bm                 Aadd4              G                  Aadd4
                                                       Берегите матерей, не забывайте матерей...
e|-------------2----|-2----------------|-0----------------|-3----------------|
B|-----3------------|-----3------------|-----3---2---0----|-------3----------|
G|---4--------------|---2--------------|---0--------------|---2--------------|
D|------------------|------------------|------------------|------------------|
A|-2----------------|-0----------------|------------------|-0----------------|
E|------------------|------------------|-3----------------|------------------|
Suggest correction
comments
print report bad tab
3 comments total.
0 reply
SergeyLarin 10 Nov 15, 2016 09:14 AM

didn't like this contribution

0 reply
tigermetal 332 Nov 16, 2016 06:04 AM

I agree, but the song is great

0 reply
SergeyLarin 10 Nov 16, 2016 07:40 AM

Выставлял плохой рейтинг. А он автоматом мне тут запилил коммент под табом. Хз правильно ли это.

guest
You may want to rate the tab now too:
select rating
Wanna post a correction for this tab? Suggest correction