Oops, an error
Loading. Please wait.

28° À Lombre Bass Tab

31 views 3 this week
no commentswrite comment
1 2 3 4 5
3 more votes to show rating
add to favorites
launch autoscroll
font size
0
reset
guitar tuner
Autoscroll
slow
fast
+/-
esc
set tempo
stop
Help us to improve Ultimate-Guitar.com Take our survey!
×
Author
Bass Start - 00:15


[Verse 1]

G|--------------|-------------|-------------|-------------|
D|--------------|-5---5-5---4-|-2---2-2-----|-2---2-2-----|
A|------------5-|-------------|-----------2-|-----------2-|
E|--3---3-3-----|-------------|-------------|-------------|


G|-------------|---------------|-------------|-------------|
D|-------------|-----------6/7-|-------------|-------------|
A|-0---0-0-----|-0---0-0-------|-5---5-5-----|-5---5-5---0-|
E|-----------0-|---------------|-----------5-|-------------|


G|------------|--------4-----|-------------|-------------|
D|------------|----------4---|-2---2--2----|-2---2-----0-|
A|-2---2------|-2---2------2-|-----------2-|---------2---|
E|----------2-|--------------|-------------|-------------|


G|------------|----------2---|-------------|------7/11--9-7---|
D|------------|--------2-----|-0---0-0-----|-0--------------7-|
A|-3---3----2-|-0---0------0-|-----------0-|------------------|
E|------------|--------------|-------------|------------------|


[Verse 2]

G|---------------|------------------|--------------|--------4-0-----|
D|-5-------------|-5)---5-5-/10-5-4-|-2---2-2----0-|-2)---2-----2-0-|
A|----------(5-7-|------------------|----------(2--|----------------|
E|-----3-3-------|------------------|--------------|----------------|


G|---------------|----------------|-------------9-7-|------------------|
D|---------------|--------6/7-----|-------7/9-7-----|---------------4)-|
A|-3---3-3---3-2-|-0---0------7---|-5---5-----------|-5---5-5--(5-7----|
E|---------3-----|--------------5-|-----------------|------------------|


G|--------------|---------4-----|--------------|-------3/4-0-----|
D|--------------|-----------4---|-2---2-2----0-|-2---2-------2-0-|
A|-2---2-2----0-|-2)---2------2-|----------2---|-----------------|
E|----------(2--|---------------|--------------|-----------------|


G|---------------|-------------|-----------(7--|-------9-7--/12-11-\-|
D|---------------|-----------2-|-0---0-0-----7-|---6/7---------------|
A|-3---3-3---3-2-|-0---0--3----|---------------|-5)------------------|
E|---------3-----|-------------|---------------|---------------------|


[Verse 3]

G|--------------|----------(5----|--------------|---------------|
D|--------------|------------5---|--------------|---------------|
A|-3---3-3----0-|-3)---3-3----x)-|-2---2-2----0-|-2)---2---2/-5-|
E|----------(3--|----------------|----------(2--|---------------|


G|----------5-4-|-2---2/6----------|--------------9---|----------------|
D|--------------|----------------0-|-2)---2-2-2/9---9-|-------9------9-|
A|-3---3-3------|---------0--0-(0--|------------------|-7---7---10-7---|
E|--------------|------------------|------------------|----------------|


G|---------------|---------------|------------------|-----------------|
D|-7---------7---|---------7-----|----------(5-7-9)-|-------9---------|
A|-------------7-|-----------7---|-7---7-7----------|-7---7---10-7----|
E|---5--5-5------|-5---5-5-----7-|------------------|--------------10-|


G|-----------------|---------------|-------------|----------7)---6/7-|
D|---------(10-----|---------------|-------------|---------7---------|
A|------------10---|-------------7-|-5---5-5---5-|-5---5-(5----5-----|
E|-8---8-8------8)-|-5---5-5-7-8---|-------------|-------------------|


[Verse 4]

G|---------------|---------------|--------------|--------4-0-----|
D|---------------|-5)---5-5--5-4-|-2---2-2----0-|-2)---2-----2-0-|
A|----------(5-7-|---------------|----------(2--|----------------|
E|-3---3-3-------|---------------|--------------|----------------|

            
G|---------------|---------------|-------------9-7-|-----------------|
D|---------------|---------7-----|-------7/9-7-----|--------------4)-|
A|-3---3-3---3-2-|-----------7---|-5---5-----------|-5---5---(5-7----|
E|---------3-----|-5---5-5-----5-|-----------------|-----------------|


G|--------------|---------4-----|---------------|--------4-0-----|
D|--------------|-----------4---|-2---2-2-----0-|-2)---2-----2-0-|
A|-2---2-2----0-|-2)---2------2-|-----------(2--|----------------|
E|----------(2--|---------------|---------------|----------------|


G|---------------|---------------|----------(7--|-------9-7--/12-11\-|
D|---------------|---------------|------------7-|---6/7--------------|
A|-3---3-3---3-2-|-------------7-|-5---5-5------|-5)-----------------|
E|---------3-----|-5---5-5-7-8---|--------------|--------------------|


[Outro]

G|--------------|----------(5----|--------------|----------------|
D|--------------|------------5---|--------------|----------------|
A|-3---3-3----0-|-3)---3-3----3)-|-2---2-2----0-|-2)---2-2--2/-5-|
E|----------(3--|----------------|----------(2--|----------------|


G|---------------|--------------------|--------(9------|----------------|
D|----------10-9-|-7---7--------------|----------9--9)-|-------9------9-|
A|-3---3-3-------|-----------------5)-|-7---7-7---7----|-7---7---10-7---|
E|---------------|-------5--(5-7-8----|----------------|----------------|


G|---------------|---------------|------------------|-----------------|
D|-7---------7---|---------7-----|----------(5-7-9)-|-------9---------|
A|-------------7-|-----------7---|-7---7-7----------|-7---7---10-7----|
E|---5--5-5------|-5---5-5-----7-|------------------|--------------10-|

                         (fade out)
G|-----------------|---------------|
D|---------(10-----|---------------|
A|------------10---|-------------7-|
E|-8---8-8------8)-|-5---5-5-7-8---|



************************

| /   slide up
| \   slide down
| x   dead note
|( )  very fast

************************

in regular sequence!
Suggest correction
Give kudos to tab author, rate the tab!
1 2 3 4 5
comments
print report bad tab
guest
You may want to rate the tab now too:
select rating
Wanna post a correction for this tab? Suggest correction