Oops, an error
Loading. Please wait.

Samskeyti Tab

version 2
version 2

Whole song

  • This version includes the link to the this version... Show more
22 views 1 this week
no commentswrite comment
1 2 3 4 5
3 more votes to show rating
add to favorites
launch autoscroll
font size
0
reset
how to read this tab
guitar tuner
Autoscroll
slow
fast
+/-
esc
set tempo
stop
Help us to improve Ultimate-Guitar.com Take our survey!
×
Author
About this tab version
This version includes the link to the this version of song. It also is the first complete tab. Was this info helpful? Yes No
Hi, I just heard this song today and decided to make my very first tab here. Hope you
like it!

Song: https://www.youtube.com/watch?v=AUeX1HnyGv8

Starts at 0:41

e|-10-11-10-------------|        e|-10-11-10-------------|
B|----------11----11----|        B|----------11----11----|
G|-------------12-------|  x2    G|-------------10-------|  x1
D|----------------------|        D|----------------------|
A|----------------------|        A|----------------------|
E|----------------------|        E|----------------------|

e|-10-11-10----13-----|
B|----------11----11--|
G|--------------------|  x1
D|--------------------|
A|--------------------|
E|--------------------|

Starts at 0:51

e|-10-11-10-------------|        e|-10-11-10-------------|
B|----------11----11----|        B|----------11----11----|
G|-------------12-------|  x2    G|-------------10-------|  x1
D|----------------------|        D|----------------------|
A|----------------------|        A|----------------------|
E|----------------------|        E|----------------------|

e|-10-11-10----13-----|
B|----------11----11--|
G|--------------------|  x1
D|--------------------|
A|--------------------|
E|--------------------|


e|-10-11-10----------10-11-10----------10-11-10----------10-11-10----------10-11-10------------------------|
B|----------11----11----------11----11----------11----11----------11----11----------11----11---------------|
G|-------------12----------------10----------------12----------------10----------------12------------------|
D|---------------------------------------------------------------------------------------------------------|
A|---------------------------------------------------------------------------------------------------------|
E|---------------------------------------------------------------------------------------------------------|

e|-10-11-10----13------------------------------------------------------------|
B|----------11----11---------------------------------------------------------|
G|---------------------------------------------------------------------------|      x2
D|---------------------------------------------------------------------------|
A|---------------------------------------------------------------------------|
E|---------------------------------------------------------------------------|

at 1:29

e|-10-11-10-------------|        e|-10-11-10-------------|
B|----------11----11----|        B|----------11----11----|
G|-------------12-------|  x2    G|-------------10-------|  x1
D|----------------------|        D|----------------------|
A|----------------------|        A|----------------------|
E|----------------------|        E|----------------------|

e|-10-11-10----13-----|
B|----------11----11--|
G|--------------------|  x1
D|--------------------|
A|--------------------|
E|--------------------|

at 1:38

e|-10-11-10----------10-11-10----------10-11-10----------10-11-10----------10-11-10------------------------|
B|----------11----11----------11----11----------11----11----------11----11----------11----11---------------|
G|-------------12----------------10----------------12----------------12----------------10------------------|
D|---------------------------------------------------------------------------------------------------------|
A|---------------------------------------------------------------------------------------------------------|
E|---------------------------------------------------------------------------------------------------------|

e|-10-11-10----------10-11-10----------10-11-10----13---|
B|----------11----11----------11----11----------11----11|
G|-------------12----------------10---------------------|
D|------------------------------------------------------|
A|------------------------------------------------------|
E|------------------------------------------------------|

1:56

e|-10-11-10----------10-11-10----------10-11-10----------10-11-10----------10-11-10------------------------|
B|----------11----11----------11----11----------11----11----------11----11----------11----11---------------|
G|-------------12----------------13----------------12----------------10----------------12------------------|
D|---------------------------------------------------------------------------------------------------------|
A|---------------------------------------------------------------------------------------------------------|
E|---------------------------------------------------------------------------------------------------------|

e|-10-11-10--------- 10-11-10----13---|
B|----------11----11----------11----11|
G|-------------10---------------------|
D|------------------------------------|
A|------------------------------------|
E|------------------------------------|

at 2:10

e|-10-11-10----------10-11-10----------10-11-10----------10-11-10----------10-11-10----13------------------|
B|----------11----11----------11----11----------11----11----------11----11----------11----11---------------|
G|-------------12----------------10----------------12----------------10------------------------------------|
D|---------------------------------------------------------------------------------------------------------|
A|---------------------------------------------------------------------------------------------------------|
E|---------------------------------------------------------------------------------------------------------|

at 2:23

e|-10-11-10----------10-11-10----------10-11-10----------10-11-10----------10-11-10------------------------|
B|----------11----11----------11----11----------11----11----------11----11----------11----11---------------|
G|-------------12----------------10----------------12----------------10----------------12------------------|
D|---------------------------------------------------------------------------------------------------------|
A|---------------------------------------------------------------------------------------------------------|
E|---------------------------------------------------------------------------------------------------------|

e|-10-11-10----------10-11-10----------10-11-10----------10-11-10----------10-11-10----13------------------|
B|----------11----11----------11----11----------11----11----------11----11----------11----11---------------|
G|-------------10----------------12----------------10----------------12------------------------------------|
D|---------------------------------------------------------------------------------------------------------|
A|---------------------------------------------------------------------------------------------------------|
E|---------------------------------------------------------------------------------------------------------|

at 2:47

e|10-11-10----------10-11-10----------10-11-10----13------------------|
B|---------11----11----------11----11----------11----11---------------|
G|------------12----------------10------------------------------------|
D|--------------------------------------------------------------------|
A|--------------------------------------------------------------------|
E|--------------------------------------------------------------------|

e|-10-11-10----------10-11-10----------10-11-10----------10-11-10----------10-11-10------------------------|
B|----------11----11----------11----11----------11----11----------11----11----------11----11---------------|
G|-------------12----------------10----------------12----------------10----------------12------------------|
D|---------------------------------------------------------------------------------------------------------|
A|---------------------------------------------------------------------------------------------------------|
E|---------------------------------------------------------------------------------------------------------|

e|-10-11-10----------10-11-10----------10-11-10----------10-11-10----------10-11-10----13------------------|
B|----------11----11----------11----11----------11----11----------11----11----------11----11---------------|
G|-------------10----------------12----------------10----------------12------------------------------------|
D|---------------------------------------------------------------------------------------------------------|
A|---------------------------------------------------------------------------------------------------------|
E|---------------------------------------------------------------------------------------------------------|

at 3:14

e|-10-11-10----------10-11-10----------10-11-10----------10-11-10----------10-11-10------------------------|
B|----------11----11----------11----11----------11----11----------11----11----------11----11---------------|
G|-------------12----------------10----------------12----------------10----------------12------------------|
D|---------------------------------------------------------------------------------------------------------|
A|---------------------------------------------------------------------------------------------------------|
E|---------------------------------------------------------------------------------------------------------|

e|-10-11-10----------10-11-10----------10-11-10----------10-11-10----------10-11-10------------------------|
B|----------11----11----------11----11----------11----11----------11----11----------11----11---------------|
G|-------------10----------------12----------------10----------------12----------------10------------------|
D|---------------------------------------------------------------------------------------------------------|
A|---------------------------------------------------------------------------------------------------------|
E|---------------------------------------------------------------------------------------------------------|

e|10-11-10----------10-11-10----13----10-11-10------------|
B|---------11----11----------11----11----------11----11---|
G|------------12----------------------------------13------|
D|--------------------------------------------------------|
A|--------------------------------------------------------|
E|--------------------------------------------------------|

till 3:46

the higher part can't be played with an Acoustic Guitar

at 4:17

e|-10-11-10----13-------10-11-10---------10-11-10-----------10---------------|
B|----------11-------------------11---------------11----11-------------------|
G|-----------------1----------------10---------------12----------0-----------|
D|---------------------------------------------------------------------------|
A|---------------------------------------------------------------------------|
E|---------------------------------------------------------------------------|

at 4:40

e|10-11-10----------10-11-10-?????--|
B|---------11----------------?????--|
G|------------10-------------?????--| can't figure the quiet thing out, sorry
D|---------------------------?????--|
A|----------------------------------|
E|----------------------------------|

e|11-10----------------------11-10----13------------------|
B|------11--------------------------11--------------------|
G|---------10-----1---3-----------------------------------|
D|--------------------------------------------------------|
A|--------------------------------------------------------|
E|--------------------------------------------------------|
Suggest correction
Give kudos to tab author, rate the tab!
1 2 3 4 5
comments
print report bad tab
guest
You may want to rate the tab now too:
select rating
Wanna post a correction for this tab? Suggest correction