Oops, an error
Loading. Please wait.

Вся Моя Любовь Tab

version 1
version 1

Whole song

  • Acoustic guitar parts of the track.

Interactive

13 views 1 this week
no commentswrite comment
1 2 3 4 5
3 more votes to show rating
add to favorites
launch autoscroll
font size
0
reset
how to read this tab
guitar tuner
Autoscroll
slow
fast
+/-
esc
set tempo
stop
Help us to improve Ultimate-Guitar.com Take our survey!
×
Author
Difficulty
novice
About this tab version
Acoustic guitar parts of the track. Was this info helpful? Yes No
Intro:                                 _
e|-------0-------0-|-------0---------|  |
B|-----------------|-----------------|  |
G|-----2-----2-----|---2-------2-----|  |
D|-0-4---------4---|-----4-------4---|  |
A|-----------------|-----------------|  |
E|-----------------|-----------------|  |
                                        |
e|-----------------|-----------------|  |
B|-------2-------2-|-------2---------|  |
G|---1-2-----2-1---|---2-1-----2-1---|  |
D|-----------------|-----------------|  |
A|-----------------|-----------------|  |
E|-2---------------|-----------------|  |
                                        |--×2
e|-------0-------0-|-------2---------|  |
B|-----------------|-----------------|  |
G|-----2-----2-----|---2-------2-1---|  |
D|-0-4---------4---|-----4-2---------|  |
A|-----------------|-----------------|  |
E|-----------------|-----------------|  |
                                        |
e|-----------------|-----------------|  |
B|-------2-------2-|-------2---------|  |
G|---1-2-----2-1---|---2-1-----2-1---|  |
D|-----------------|-----------------|  |
A|-----------------|-----------------|  |
E|-2---------------|-----------------| _|

Pre-Chorus/Interlude                   _
e|-5---------5-----|-------0---0-----|  |
B|-7---7-----7-----|-------0---0-----|  |
G|-7---7-7---7---7-|---7-------------|  |
D|-7---7-7---7---7-|---7---6---6-----|  |
A|-----------------|-------7---------|  |
E|-----------------|-----------------|  |
                                        |--×4
e|-2-----2---2-----|-2-----2---2---2-|  |
B|-2-----2---2-----|-2-----2---2---2-|  |
G|-2-----2---2-----|-2-----2---2---2-|  |
D|-4-----4---4-----|-4-----4---4---4-|  |
A|-4---------------|-4---------------|  |
E|-----------------|-----------------| _|

Chorus
e|-2---2-2---2-2---|-1---1-1---1-1---|
B|-3---3-3---3-3---|-2---2-2---2-2---|
G|-2---2-2---2-2---|-1---1-1---1-1---|
D|-4---4-4---4-4---|-3---3-3---3-3---|
A|-----------------|-----------------|
E|-----------------|-----------------|×4
Suggest correction
Give kudos to tab author, rate the tab!
1 2 3 4 5
comments
print report bad tab
guest
You may want to rate the tab now too:
select rating
Wanna post a correction for this tab? Suggest correction