Oops, an error
Loading. Please wait.

Smokin In The Boys Room Bass Tab

version 3
version 3

Whole song

Interactive

28 views 1 this week
no commentswrite comment
1 2 3 4 5
2 more votes to show rating
add to favorites
launch autoscroll
font size
0
reset
guitar tuner
Autoscroll
slow
fast
+/-
esc
set tempo
stop
Help us to improve Ultimate-Guitar.com Take our survey!
×
Intro]

G|-----------| x8   |----|
D|*---------*|      |----|
A|*---4h5---*|      |--5-|
E|-----------|      |----|

[Verse]

G|---------------------| x2
D|*-------------------*|
A|*--4h5-4h5----------*|
E|-----------5h6-5h6---|

[Chorus]

G|---------------------------------------------------------------------------------|
D|---------------------------------------------------------------------------------|
A|---------------------------------5-5-5-5-5-5-5-5-5-5-5-5-5-5-5-5-----------------|
E|-3-3-3-3-3-3-3-3-3-3-3-3-3-3-3-3---------------------------------5-5-5-5-5-5-5-5-|

G|-----------------------------------------------------------|
D|-----------------------------------------------------------|
A|-------------------------------------------------4h5---4h5-|
E|-3-3-3-3-3-3-3-3-5-5-5-5-5-5-5-5-3-3-3-3-3-3-3-------------|

[Verse]

G|---------------------| x2
D|*-------------------*|
A|*--4h5-4h5----------*|
E|-----------5h6-5h6---|

[Chorus]

G|---------------------------------------------------------------------------------|
D|---------------------------------------------------------------------------------|
A|---------------------------------5-5-5-5-5-5-5-5-5-5-5-5-5-5-5-5-----------------|
E|-3-3-3-3-3-3-3-3-3-3-3-3-3-3-3-3---------------------------------5-5-5-5-5-5-5-5-|

G|-----------------------------------------------------------------|
D|-----------------------------------------------------------------|
A|--------------------------------------------------4h5 4h5 5420---|
E|-3-3-3-3-3-3-3-3-5-5-5-5-5-5-5-5-3-3-3-3-3-3-3-------------------|

[Solo]

G|-----------------------------------------------------------------------------------------------|
D|-----------------------------------------------------------------------------------------------|
A|--------------------------------5-5-5-5-5-5-5-5-5-5-5-5-5-5-5-5--------------------------------|
E|3-3-3-3-3-3-3-3-3-3-3-3-3-3-3-3---------------------------------3-3-3-3-3-3-3-3-3-3-3-3-3-3-3-3|

G|---------------------------------------------------------------------------------------------------|
D|---------------------------------------------------------------------------------------------------|
A|--------------------------------------------------------------------5-5-5-5-5-5-5-5-5-5-5-5-5-5-5-5|
E|5-5-5-5-5-5-5-5-5-5-5-5-5-5-5-5-5-5-3-3-3-3-3-3-3-3-3-3-3-3-3-3-3-3--------------------------------|

G|-----------------------------------------------------------------------------------------------|
D|-----------------------------------------------------------------------------------------------|
A|-----------------------------------------------------------------------------------------------|
E|3-3-3-3-3-3-3-3-3-3-3-3-3-3-3-3-5-5-5-5-5-5-5-5-5-5-5-5-5-5-5-5-3-3-3-3-3-3-3-3-3-3-3-3-3-3-3-3|

G|--------------------------------------------------------------------------------------------------------|
D|--------------------------------------------------------------------------------------------------------|
A|5-5-5-5-5-5-5-5-5-5-5-5-5-5-5-5----------------------------------------------------------------4h5---4h5|
E|--------------------------------3-3-3-3-3-3-3-3-3-3-3-3-3-3-3-3-0-0-0-0-0-0-0-0-5-5-5-5-5-5-5-----------|

[Verse]

G|---------------------| x2
D|*-------------------*|
A|*--4h5-4h5----------*|
E|-----------5h6-5h6---|

[Chorus]

G|-------------------------------------------------------------------------------|
D|-------------------------------------------------------------------------------|
A|-------------------------------5-5-5-5-5-5-5-5-5-5-5-5-5-5-5-5-----------------|
E|-3-3-3-3-3-3-3-3-3-3-3-3-3-3-3---------------------------------5-5-5-5-5-5-5-5-|

G|------------------------------------------------------------------|
D|------------------------------------------------------------------|
A|------------------------------------------------4h5---4h5-5-7-8-9-|
E|-3-3-3-3-3-3-3-3-5-5-5-5-5-5-5-5-3-3-3-3-3-3-3--------------------|

[Part after the clapping]

G|------------------------------------------------------------------------------------|
D|------------------------------------------------------------------------------------|
A|-------------------------------------------------------------------4h5--4h5-5-7-8-9-|
E|5-5-5-5-5-5-5-5-5-5-5-5-5-5-5-5-3-3-3-3-3-3-3-3-3-3-3-3-3-3-3-3-3-------------------|

[Outro]

G|---------------------------------------------------------------------------------|
D|---------------------------------------------------------------------------------|
A|---------------------------------5-5-5-5-5-5-5-5-5-5-5-5-5-5-5-5-----------------|
E|-3-3-3-3-3-3-3-3-3-3-3-3-3-3-3-3---------------------------------5-5-5-5-5-5-5-5-|

G|--------------------------------------------------------|
D|--------------------------------------------------------|
A|-----------------------------------5-------8--5----5\---|
E|-3-3-3-3-3-3-3-3-5-5-5-5-5-5-5-5-0----7--5--------------|
Suggest correction
Give kudos to tab author, rate the tab!
1 2 3 4 5
comments
print report bad tab
guest
You may want to rate the tab now too:
select rating
Wanna post a correction for this tab? Suggest correction