Oops, an error
Loading. Please wait.

Вся Моя Любовь Bass Tab

version 1
version 1

Whole song

  • Bass tab of the whole song.

Interactive

4 views 1 this week
no commentswrite comment
1 2 3 4 5
3 more votes to show rating
add to favorites
launch autoscroll
font size
0
reset
guitar tuner
Autoscroll
slow
fast
+/-
esc
set tempo
stop
Help us to improve Ultimate-Guitar.com Take our survey!
×
Author
Difficulty
Tuning
novice
C G C F A D
About this tab version
Bass tab of the whole song. Was this info helpful? Yes No
[Pre-Chorus][1:36]
F|---------------------------------|
C|---------------------------------|
G|---------------------------------|
C|-2-2-2-2-2-2-2-2-2-2---2-2-2-2-2-|

F|---------------------------------|
C|---------------------------------|
G|---------------------------------|
C|-2-2-2-2-2-2-2-2-1---1-1-1-1-1-1-|

F|---------------------------------|
C|---------------------------------|
G|---------------------------------|
C|-6-6-6-6-6-6-6-6---6-6-6-6-6-6-6-|

F|---------------------------------|
C|---------------------------------|
G|-------------------2-2-2-2-2-2-2-|
C|---6-6-6-6-6-6-6-6---------------|

F|---------------------------------|
C|---------------------------------|
G|---------------------------------|
C|-2-2-2-2-2-2-2-2-2-2---2-2-2-2-2-|

F|---------------------------------|
C|---------------------------------|
G|---------------------------------|
C|-2-2-2-2-2-2-2-2-1---1-1-1-1-1-1-|

F|---------------------------------|
C|---------------------------------|
G|---------------------------------|
C|-6-6-6-6-6-6-6-6---6-6-6-6-6-6-6-|

F|---------------------------------|
C|---------------------------------|
G|-------------------2-2-2-2-2-2-2-|
C|---6-6-6-6-6-6-6-6---------------|

F|---------------------------------|
C|---------------------------------|
G|---------------------------------|
C|-2-2-2-2-2-2-2-2-2-2---2-2-2-2-2-|

F|---------------------------------|
C|---------------------------------|
G|---------------------------------|
C|-2-2-2-2-2-2-2-2-1---1-1-1-1-1-1-|

F|---------------------------------|
C|---------------------------------|
G|---------------------------------|
C|-6-6-6-6-6-6-6-6---6-6-6-6-6-6-6-|

F|---------------------------------|
C|---------------------------------|
G|-------------------2-2-2-2-2-2-2-|
C|---6-6-6-6-6-6-6-6---------------|

F|---------------------------------|
C|---------------------------------|
G|---------------------------------|
C|-2-2-2-2-2-2-2-2-2-2---2-2-2-2-2-|

F|---------------------------------|
C|---------------------------------|
G|---------------------------------|
C|-2-2-2-2-2-2-2-2-1---1-1-1-1-1-1-|

F|---------------------------------|
C|---------------------------------|
G|---------------------------------|
C|-6-6-6-6-6-6-6-6---6-6-6-6-6-6-6-|

F|---------------------------------|
C|---------------------------------|
G|-------------------2-2-2-2-2-2-2-|
C|---6-6-6-6-6-6-6-6---------------|

[Chorus]
F|---------------------------------|
C|---------------------------------|
G|---------------------------------|
C|-2-2-2-2-2-2-2-2-2-2-2-2-2-2-2-2-|

F|---------------------------------|
C|---------------------------------|
G|---------------------------------|
C|-1-1-1-1-1-1-1-1-1-1-1-1-1-1-1-1-|

F|---------------------------------|
C|---------------------------------|
G|---------------------------------|
C|-2-2-2-2-2-2-2-2-2-2-2-2-2-2-2-2-|

F|---------------------------------|
C|---------------------------------|
G|---------------------------------|
C|-1-1-1-1-1-1-1-1-1-1-1-1-1-1-1-1-|

F|---------------------------------|
C|---------------------------------|
G|---------------------------------|
C|-2-2-2-2-2-2-2-2-2-2-2-2-2-2-2-2-|

F|---------------------------------|
C|---------------------------------|
G|---------------------------------|
C|-1-1-1-1-1-1-1-1-1-1-1-1-1-1-1-1-|

F|---------------------------------|
C|---------------------------------|
G|---------------------------------|
C|-2-2-2-2-2-2-2-2-2-2-2-2-2-2-2-2-|

F|---------------------------------|
C|---------------------------------|
G|---------------------------------|
C|-1-1-1-1-1-1-1-1-1-1-1-1-1-1-1-1-|

[Pre-Chorus]
F|---------------------------------|
C|---------------------------------|
G|---------------------------------|
C|-2-2-2-2-2-2-2-2-2-2---2-2-2-2-2-|

F|---------------------------------|
C|---------------------------------|
G|---------------------------------|
C|-2-2-2-2-2-2-2-2-1---1-1-1-1-1-1-|

F|---------------------------------|
C|---------------------------------|
G|---------------------------------|
C|-6-6-6-6-6-6-6-6---6-6-6-6-6-6-6-|

F|---------------------------------|
C|---------------------------------|
G|-------------------2-2-2-2-2-2-2-|
C|---6-6-6-6-6-6-6-6---------------|

F|---------------------------------|
C|---------------------------------|
G|---------------------------------|
C|-2-2-2-2-2-2-2-2-2-2---2-2-2-2-2-|

F|---------------------------------|
C|---------------------------------|
G|---------------------------------|
C|-2-2-2-2-2-2-2-2-1---1-1-1-1-1-1-|

F|---------------------------------|
C|---------------------------------|
G|---------------------------------|
C|-6-6-6-6-6-6-6-6---6-6-6-6-6-6-6-|

F|---------------------------------|
C|---------------------------------|
G|-------------------2-2-2-2-2-2-2-|
C|---6-6-6-6-6-6-6-6---------------|

F|---------------------------------|
C|---------------------------------|
G|---------------------------------|
C|-2-2-2-2-2-2-2-2-2-2---2-2-2-2-2-|

F|---------------------------------|
C|---------------------------------|
G|---------------------------------|
C|-2-2-2-2-2-2-2-2-1---1-1-1-1-1-1-|

F|---------------------------------|
C|---------------------------------|
G|---------------------------------|
C|-6-6-6-6-6-6-6-6---6-6-6-6-6-6-6-|

F|---------------------------------|
C|---------------------------------|
G|-------------------2-2-2-2-2-2-2-|
C|---6-6-6-6-6-6-6-6---------------|

F|---------------------------------|
C|---------------------------------|
G|---------------------------------|
C|-2-2-2-2-2-2-2-2-2-2---2-2-2-2-2-|

F|---------------------------------|
C|---------------------------------|
G|---------------------------------|
C|-2-2-2-2-2-2-2-2-1---1-1-1-1-1-1-|

F|---------------------------------|
C|---------------------------------|
G|---------------------------------|
C|-6-6-6-6-6-6-6-6---6-6-6-6-6-6-6-|

F|---------------------------------|
C|---------------------------------|
G|-------------------2-2-2-2-2-2-2-|
C|---6-6-6-6-6-6-6-6---------------|

F|---------------------------------|
C|---------------------------------|
G|---------------------------------|
C|-2-2-2-2-2-2-2-2-2-2---2-2-2-2-2-|

F|---------------------------------|
C|---------------------------------|
G|---------------------------------|
C|-2-2-2-2-2-2-2-2-1---1-1-1-1-1-1-|

F|---------------------------------|
C|---------------------------------|
G|---------------------------------|
C|-6-6-6-6-6-6-6-6---6-6-6-6-6-6-6-|

F|---------------------------------|
C|---------------------------------|
G|-------------------2-2-2-2-2-2-2-|
C|---6-6-6-6-6-6-6-6---------------|

F|---------------------------------|
C|---------------------------------|
G|---------------------------------|
C|-2-2-2-2-2-2-2-2-2-2---2-2-2-2-2-|

F|---------------------------------|
C|---------------------------------|
G|---------------------------------|
C|-2-2-2-2-2-2-2-2-1---1-1-1-1-1-1-|

F|---------------------------------|
C|---------------------------------|
G|---------------------------------|
C|-6-6-6-6-6-6-6-6---6-6-6-6-6-6-6-|

F|---------------------------------|
C|---------------------------------|
G|-------------------2-2-2-2-2-2-2-|
C|---6-6-6-6-6-6-6-6---------------|

[Break]
F|---------------------------------|
C|---------------------------------|
G|---------------------------------|
C|---------------------------------|

F|---------------------------------|
C|---------------------------------|
G|---------------------------------|
C|---------------------------------|

F|---------------------------------|
C|---------------------------------|
G|---------------------------------|
C|---------------------------------|

F|---------------------------------|
C|---------------------------------|
G|---------------------------------|
C|---------------------------------|

F|---------------------------------|
C|---------------------------------|
G|---------------------------------|
C|---------------------------------|

F|---------------------------------|
C|---------------------------------|
G|---------------------------------|
C|---------------------------------|

F|---------------------------------|
C|---------------------------------|
G|---------------------------------|
C|---------------------------------|

F|---------------------------------|
C|---------------------------------|
G|---------------------------------|
C|---------------------------------|

F|---------------------------------|
C|---------------------------------|
G|---------------------------------|
C|---------------------------------|

F|---------------------------------|
C|---------------------------------|
G|---------------------------------|
C|---------------------------------|

F|---------------------------------|
C|---------------------------------|
G|---------------------------------|
C|---------------------------------|

F|---------------------------------|
C|---------------------------------|
G|---------------------------------|
C|---------------------------------|

F|---------------------------------|
C|---------------------------------|
G|---------------------------------|
C|---------------------------------|

F|---------------------------------|
C|---------------------------------|
G|---------------------------------|
C|---------------------------------|

F|---------------------------------|
C|---------------------------------|
G|---------------------------------|
C|---------------------------------|

F|---------------------------------|
C|---------------------------------|
G|---------------------------------|
C|---------------------------------|

F|---------------------------------|
C|---------------------------------|
G|---------------------------------|
C|---------------------------------|

F|---------------------------------|
C|---------------------------------|
G|---------------------------------|
C|---------------------------------|

F|---------------------------------|
C|---------------------------------|
G|---------------------------------|
C|---------------------------------|

F|---------------------------------|
C|---------------------------------|
G|---------------------------------|
C|---------------------------------|

[Pre-Chorus]
F|---------------------------------|
C|---------------------------------|
G|---------------------------------|
C|-2-2-2-2-2-2-2-2-2-2---2-2-2-2-2-|

F|---------------------------------|
C|---------------------------------|
G|---------------------------------|
C|-2-2-2-2-2-2-2-2-1---1-1-1-1-1-1-|

F|---------------------------------|
C|---------------------------------|
G|---------------------------------|
C|-6-6-6-6-6-6-6-6---6-6-6-6-6-6-6-|

F|---------------------------------|
C|---------------------------------|
G|-------------------2-2-2-2-2-2-2-|
C|---6-6-6-6-6-6-6-6---------------|

F|---------------------------------|
C|---------------------------------|
G|---------------------------------|
C|-2-2-2-2-2-2-2-2-2-2---2-2-2-2-2-|

F|---------------------------------|
C|---------------------------------|
G|---------------------------------|
C|-2-2-2-2-2-2-2-2-1---1-1-1-1-1-1-|

F|---------------------------------|
C|---------------------------------|
G|---------------------------------|
C|-6-6-6-6-6-6-6-6---6-6-6-6-6-6-6-|

F|---------------------------------|
C|---------------------------------|
G|-------------------2-2-2-2-2-2-2-|
C|---6-6-6-6-6-6-6-6---------------|

F|---------------------------------|
C|---------------------------------|
G|---------------------------------|
C|-2-2-2-2-2-2-2-2-2-2---2-2-2-2-2-|

F|---------------------------------|
C|---------------------------------|
G|---------------------------------|
C|-2-2-2-2-2-2-2-2-1---1-1-1-1-1-1-|

F|---------------------------------|
C|---------------------------------|
G|---------------------------------|
C|-6-6-6-6-6-6-6-6---6-6-6-6-6-6-6-|

F|---------------------------------|
C|---------------------------------|
G|-------------------2-2-2-2-2-2-2-|
C|---6-6-6-6-6-6-6-6---------------|

F|---------------------------------|
C|---------------------------------|
G|---------------------------------|
C|-2-2-2-2-2-2-2-2-2-2---2-2-2-2-2-|

F|---------------------------------|
C|---------------------------------|
G|---------------------------------|
C|-2-2-2-2-2-2-2-2-1---1-1-1-1-1-1-|

F|---------------------------------|
C|---------------------------------|
G|---------------------------------|
C|-6-6-6-6-6-6-6-6---6-6-6-6-6-6-6-|

F|---------------------------------|
C|---------------------------------|
G|-------------------2-2-2-2-2-2-2-|
C|---6-6-6-6-6-6-6-6---------------|

[Chorus]
F|---------------------------------|
C|---------------------------------|
G|---------------------------------|
C|-2-2-2-2-2-2-2-2-2-2-2-2-2-2-2-2-|

F|---------------------------------|
C|---------------------------------|
G|---------------------------------|
C|-1-1-1-1-1-1-1-1-1-1-1-1-1-1-1-1-|

F|---------------------------------|
C|---------------------------------|
G|---------------------------------|
C|-2-2-2-2-2-2-2-2-2-2-2-2-2-2-2-2-|

F|---------------------------------|
C|---------------------------------|
G|---------------------------------|
C|-1-1-1-1-1-1-1-1-1-1-1-1-1-1-1-1-|

F|---------------------------------|
C|---------------------------------|
G|---------------------------------|
C|-2-2-2-2-2-2-2-2-2-2-2-2-2-2-2-2-|

F|---------------------------------|
C|---------------------------------|
G|---------------------------------|
C|-1-1-1-1-1-1-1-1-1-1-1-1-1-1-1-1-|

F|---------------------------------|
C|---------------------------------|
G|---------------------------------|
C|-2-2-2-2-2-2-2-2-2-2-2-2-2-2-2-2-|

F|---------------------------------|
C|---------------------------------|
G|---------------------------------|
C|-1-1-1-1-1-1-1-1-1-1-1-1-1-1-1-1-|

[Interlude]
F|---------------------------------|
C|---------------------------------|
G|---------------------------------|
C|-2-2-2-2-2-2-2-2-2-2---2-2-2-2-2-|

F|---------------------------------|
C|---------------------------------|
G|---------------------------------|
C|-2-2-2-2-2-2-2-2-1---1-1-1-1-1-1-|

F|---------------------------------|
C|---------------------------------|
G|---------------------------------|
C|-6-6-6-6-6-6-6-6---6-6-6-6-6-6-6-|

F|---------------------------------|
C|---------------------------------|
G|-------------------2-2-2-2-2-2-2-|
C|---6-6-6-6-6-6-6-6---------------|

F|---------------------------------|
C|---------------------------------|
G|---------------------------------|
C|-2-2-2-2-2-2-2-2-2-2---2-2-2-2-2-|

F|---------------------------------|
C|---------------------------------|
G|---------------------------------|
C|-2-2-2-2-2-2-2-2-1---1-1-1-1-1-1-|

F|---------------------------------|
C|---------------------------------|
G|---------------------------------|
C|-6-6-6-6-6-6-6-6---6-6-6-6-6-6-6-|

F|---------------------------------|
C|---------------------------------|
G|-------------------2-2-2-2-2-2-2-|
C|---6-6-6-6-6-6-6-6---------------|
Suggest correction
Give kudos to tab author, rate the tab!
1 2 3 4 5
comments
print report bad tab
guest
You may want to rate the tab now too:
select rating
Wanna post a correction for this tab? Suggest correction