Oops, an error
Loading. Please wait.

Hon Har Ett Sätt Bass Tab

43 views 3 this week
no commentswrite comment
1 2 3 4 5
3 more votes to show rating
add to favorites
launch autoscroll
font size
0
reset
guitar tuner
Autoscroll
slow
fast
+/-
esc
set tempo
stop
Help us to improve Ultimate-Guitar.com Take our survey!
×
Author
Difficulty
novice
[Verse 1]

G|-----------|-------------|-------------|-------------|-------------|
D|-4h5-4h5-4-|-------------|-------------|-------------|-------------|
A|-----------|-5---5-------|-------------|-3---3-2---2-|-0---0-------|
E|-----------|-------2---2-|-5---5-4---4-|-------------|-------4---4-|


G|-------------|----------------|-------------|--------------|
D|-------------|----------------|-------------|--------------|
A|-------------|----------------|-------------|-----4-5------|
E|-5---5-4---4-|-3---3-2--------|-3---3-2---2-|-0-------2-3--|


G|-------------|----------------|-------------|--------------|
D|-------------|----------------|-------------|--------------|
A|-5---5-------|----------------|-------3-----|-2---2--------|
E|-------2-----|-5---5-4--------|-3---3-------|-------5--0-2-|


G|-------------|--------------|-------------|---------------|
D|-------------|--------------|-------------|---------------|
A|-------------|-0---2-3------|-------------|-----4-5-\-----|
E|-3---3-2---3-|----------0-2-|-3---3-2---2-|-0---------0-2-|


G|-------------|---------------|
D|-------------|---------------|
A|-------------|-----5-7-5-----|
E|-3---3-3---3-|-3---------7-\-|


[Verse 2]

G|-------------|-------------|-------------|-------------|
D|-------------|-------------|-------------|-------------|
A|-5---5-------|-------------|-3---3-2---2-|-0---0-------|
E|-------2---2-|-5---5-4---4-|-------------|-------4---4-|


G|-------------|-------------|-------------|---------------|
D|-------------|-------------|-------------|---------------|
A|-------------|-------------|-------------|-----4-5-\-----|
E|-5---5-4---4-|-3---3-2---2-|-3---3-2---2-|-0---------2-3-|


G|-------------|-------------|-------------|-------------|
D|-------------|-------------|-------------|-------------|
A|-5---5-------|-------------|-------3---3-|-2---2-0---0-|
E|-------2---2-|-5---5-4---4-|-3---3-------|-------------|


G|-------------|--------------|-------------|--------------|
D|-------------|--------------|-------------|--------------|
A|-------------|-0---2-3------|-------------|-----4-5------|
E|-3---3-2---3-|----------0-2-|-3---3-2---2-|-0-------2-3--|


[Chorus]

G|------------------|----------------|---------------|----------------|
D|---0-2-5--5-5/7-5-|---0-2----------|---0-2---------|--------------5-|
A|-3----------------|-3--------------|-3-----3-2---0-|---0-2------5---|
E|------------------|-------3--3-5-3-|---------------|-4-----4--3-----|


G|------------------|----------------|----------------|--------------|
D|---0-2-5--5-5/7-5-|---0-2----------|----------------|--------------|
A|-3----------------|-3-----3-2------|------2-0-------|-2---2-2--0-2-|
E|------------------|----------------|-0--4-----4-2-0-|--------------|


[Interlude]

G|----------------|-------------|---------7-------|
D|----------5-----|------7/9-7--|-----7h9----9--7-|
A|-3--3--/7---7-5-|-------------|-7h9-------------|
E|----------------|-------------|-----------------|


G|-------------|--------------|-------------|--------------|
D|-------------|--------------|-------------|-5------------|
A|-0---0-2---2-|-3---3-5------|----------5--|-----------2--|
E|-------------|----------0-2-|-3---3-3-----|-----3-3-5----|


[Verse 3]

G|-------------|-------------|-------------|-------------|
D|-------------|-------------|-------------|-------------|
A|-5---5-------|-------------|-3---3-2---2-|-0---0-------|
E|-------2---2-|-5---5-4---4-|-------------|-------4---4-|


G|-------------|-------------|-------------|--------------|
D|-------------|-------------|-------------|--------------|
A|-------------|-------------|-------------|-----4-5------|
E|-5---5-4---4-|-3---3-2---2-|-3---3-2---2-|-0-------2-3--|


G|-------------|-------------|-------------|-------------|
D|-------------|-------------|-------------|-------------|
A|-5---5-------|-------------|-------3---3-|-2---2-0---0-|
E|-------2---2-|-5---5-4---4-|-3---3-------|-------------|


G|--------------|--------------|-------------|--------------|
D|--------------|--------------|-------------|--------------|
A|------------0-|-0---2-3------|-------------|-----4-5------|
E|-3---3-2--3---|----------0-2-|-3---3-2---2-|-0-------2-3--|


[Interlude]

G|-------------|-------------|-------------|-----------------|
D|-------------|-------------|-------------|---------------5-|
A|-------------|-------------|-------------|-------------5---|
E|-5---5-4---4-|-3---3-2---2-|-0---0-0---0-|-2-2-2-2-2-3-----|


[Chorus]

G|------------------|----------------|---------------|----------------|
D|---0-2-5--5-5/7-5-|---0-2----------|---0-2---------|--------------5-|
A|-3----------------|-3--------------|-3-----3-2---0-|---0-2------5---|
E|------------------|-------3--3-5-3-|---------------|-4-----4--3-----|


G|------------------|---------------|----------------|---------------|
D|---0-2-5--5-5/7-5-|---0-2---------|----------------|---------------|
A|-3----------------|-3-----3-2-----|------2-0-------|-2-2-2-2----5--|
E|------------------|-------------5-|-0--4-----4-2-0-|----------3----|


G|------------------|----------------|---------------|----------------|
D|---0-2-5--5-5/7-5-|---0-2----------|---0-2---------|--------------5-|
A|-3----------------|-3--------------|-3-----3-2---0-|---0-2------5---|
E|------------------|-------3--3-5-3-|---------------|-4-----4--3-----|


G|------------------|----------------|----------------|----------------|
D|---0-2-5--5-5/7-5-|---0-2----------|---0-2----------|---0-2----------|
A|-3----------------|-3--------------|-3--------------|-3--------------|
E|------------------|-------3--3-5-3-|-------3--3-5-3-|-------3--3-5-3-|


G|------------------|----------------|---------------|----------------|
D|---0-2-5--5-5/7-5-|---0-2----------|---0-2---------|--------------5-|
A|-3----------------|-3--------------|-3-----3-2---0-|---0-2------5---|
E|------------------|-------3--3-5-3-|---------------|-4-----4--3-----|


[Outro] [repeat until the end)

G|------------------|----------------|------------------|----------------|
D|---0-2-5--5-5/7-5-|---0-2----------|---0-2-5--5-5/7-5-|---0-2----------|
A|-3----------------|-3--------------|-3----------------|-3--------------|
E|------------------|-------3--3-5-3-|------------------|-------3--3-5-3-|



******************************

| / : slide up
| \ : slide down
| h : hammer-on

******************************

in regular sequence!
Suggest correction
Give kudos to tab author, rate the tab!
1 2 3 4 5
comments
print report bad tab
guest
You may want to rate the tab now too:
select rating
Wanna post a correction for this tab? Suggest correction