Oops, an error
Loading. Please wait.

Я Твой Враг Bass Tab

version 1
version 1

Whole song

  • This is the synth Bass tabbed for an standard tuned Bass.

Interactive

4 views 1 this week
no commentswrite comment
1 2 3 4 5
3 more votes to show rating
add to favorites
launch autoscroll
font size
0
reset
guitar tuner
Autoscroll
slow
fast
+/-
esc
set tempo
stop
Help us to improve Ultimate-Guitar.com Take our survey!
×
Author
Difficulty
novice
About this tab version
This is the synth Bass tabbed for an standard tuned Bass. Was this info helpful? Yes No
[Intro]
G|-----------------|-----------------|-----------------|---2---2---2---2-|
D|-----------------|-----------------|---2---2---2---2-|-----------------|
A|---2---2---2---2-|---2---2---2---2-|-----------------|-----------------|
E|-----------------|-----------------|-----------------|-----------------|

G|-----------------|-----------------|-----------------|---2-------------|
D|-----------------|-----------------|---2---2---2---2-|-----------------|
A|---2---2---2---2-|---2---2---2---2-|-----------------|-----------------|
E|-----------------|-----------------|-----------------|-----------------|

G|-----------------|-----------------|-----------------|---2---2---2---2-|
D|-----------------|-----------------|---2---2---2---2-|-----------------|
A|---2---2---2---2-|---2---2---2---2-|-----------------|-----------------|
E|-----------------|-----------------|-----------------|-----------------|

G|-----------------|-----------------|-----------------|---2---2---2---2-|
D|-----------------|-----------------|---2---2---2---2-|-----------------|
A|---2---2---2---2-|---2---2---2---2-|-----------------|-----------------|
E|-----------------|-----------------|-----------------|-----------------|

[Verse]
G|-----------------|-----------------|-----------------|-----------------|
D|-----------------|-----------------|-----------------|-----------------|
A|---2---2---2---2-|---2---2---2---2-|---2---2---2---2-|---2---2---2---2-|
E|-----------------|-----------------|-----------------|-----------------|

G|---2---2---2---2-|---2---2---2---2-|-----------------|-----------------|
D|-----------------|-----------------|-----------------|-----------------|
A|-----------------|-----------------|---2---2---2---2-|---2---2---2---2-|
E|-----------------|-----------------|-----------------|-----------------|

G|-----------------|-----------------|-----------------|-----------------|
D|-----------------|-----------------|-----------------|-----------------|
A|---2---2---2---2-|---2---2---2---2-|---2---2---2---2-|---2---2---2---2-|
E|-----------------|-----------------|-----------------|-----------------|

G|---2---2---2---2-|---2---2---2---2-|-----------------|---2---2---2---2-|
D|-----------------|-----------------|---0---0---0---0-|-----------------|
A|-----------------|-----------------|-----------------|-----------------|
E|-----------------|-----------------|-----------------|-----------------|

[Chorus]
G|-----------------|---0---0---0---0-|-----------------|-----------------|
D|-----------------|-----------------|---2---2---2---2-|---4---4---4---4-|
A|---2---2---2---2-|-----------------|-----------------|-----------------|
E|-----------------|-----------------|-----------------|-----------------|

G|---0---0---0---0-|-----------------|-----------------|-----------------|
D|-----------------|---2---2---2---2-|---4---4---4---4-|-----------4---4-|
A|-----------------|-----------------|-----------------|---1---1---------|
E|-----------------|-----------------|-----------------|-----------------|

G|-----------------|---0---0---0---0-|-----------------|-----------------|
D|-----------------|-----------------|---2---2---2---2-|---4---4---4---4-|
A|---2---2---2---2-|-----------------|-----------------|-----------------|
E|-----------------|-----------------|-----------------|-----------------|

G|---0---0---0---0-|-----------------|-----------------|-----------------|
D|-----------------|---2---2---2---2-|---4---4---4---4-|---4-------------|
A|-----------------|-----------------|-----------------|-----------------|
E|-----------------|-----------------|-----------------|-----------------|

[Interlude]
G|-----------------|-----------------|-----------------|---2---2---2---2-|
D|-----------------|-----------------|---2---2---2---2-|-----------------|
A|---2---2---2---2-|---2---2---2---2-|-----------------|-----------------|
E|-----------------|-----------------|-----------------|-----------------|

G|-----------------|-----------------|-----------------|---2-------------|
D|-----------------|-----------------|---2---2---2---2-|-----------------|
A|---2---2---2---2-|---2---2---2---2-|-----------------|-----------------|
E|-----------------|-----------------|-----------------|-----------------|

[Verse]
G|-----------------|-----------------|-----------------|-----------------|
D|-----------------|-----------------|-----------------|-----------------|
A|---2---2---2---2-|---2---2---2---2-|---2---2---2---2-|---2---2---2---2-|
E|-----------------|-----------------|-----------------|-----------------|

G|---2---2---2---2-|---2---2---2---2-|-----------------|-----------------|
D|-----------------|-----------------|-----------------|-----------------|
A|-----------------|-----------------|---2---2---2---2-|---2---2---2---2-|
E|-----------------|-----------------|-----------------|-----------------|

G|-----------------|-----------------|-----------------|-----------------|
D|-----------------|-----------------|-----------------|-----------------|
A|---2---2---2---2-|---2---2---2---2-|---2---2---2---2-|---2---2---2---2-|
E|-----------------|-----------------|-----------------|-----------------|

G|---2---2---2---2-|---2---2---2---2-|-----------------|---2---2---2---2-|
D|-----------------|-----------------|---0---0---0---0-|-----------------|
A|-----------------|-----------------|-----------------|-----------------|
E|-----------------|-----------------|-----------------|-----------------|

[Chorus]
G|-----------------|---0---0---0---0-|-----------------|-----------------|
D|-----------------|-----------------|---2---2---2---2-|---4---4---4---4-|
A|---2---2---2---2-|-----------------|-----------------|-----------------|
E|-----------------|-----------------|-----------------|-----------------|

G|---0---0---0---0-|-----------------|-----------------|-----------------|
D|-----------------|---2---2---2---2-|---4---4---4---4-|-----------4---4-|
A|-----------------|-----------------|-----------------|---1---1---------|
E|-----------------|-----------------|-----------------|-----------------|

G|-----------------|---0---0---0---0-|-----------------|-----------------|
D|-----------------|-----------------|---2---2---2---2-|---4---4---4---4-|
A|---2---2---2---2-|-----------------|-----------------|-----------------|
E|-----------------|-----------------|-----------------|-----------------|

G|---0---0---0---0-|-----------------|-----------------|-----------------|
D|-----------------|---2---2---2---2-|---4---4---4---4-|---4-------------|
A|-----------------|-----------------|-----------------|-----------------|
E|-----------------|-----------------|-----------------|-----------------|

[Interlude]
G|-----------------|-----------------|-----------------|---2---2---2---2-|
D|-----------------|-----------------|---2---2---2---2-|-----------------|
A|---2---2---2---2-|---2---2---2---2-|-----------------|-----------------|
E|-----------------|-----------------|-----------------|-----------------|

G|-----------------|-----------------|-----------------|---2---2---2---2-|
D|-----------------|-----------------|---2---2---2---2-|-----------------|
A|---2---2---2---2-|---2---2---2---2-|-----------------|-----------------|
E|-----------------|-----------------|-----------------|-----------------|

G|-----------------|-----------------|-----------------|---2---2---2---2-|
D|-----------------|-----------------|---2---2---2---2-|-----------------|
A|---2---2---2---2-|---2---2---2---2-|-----------------|-----------------|
E|-----------------|-----------------|-----------------|-----------------|

G|-----------------|-----------------|-----------------|---2---2---2---2-|
D|-----------------|-----------------|---2---2---2---2-|-----------------|
A|---2---2---2---2-|---2---2---2---2-|-----------------|-----------------|
E|-----------------|-----------------|-----------------|-----------------|

[Chorus]
G|-----------------|---0---0---0---0-|-----------------|-----------------|
D|-----------------|-----------------|---2---2---2---2-|---4---4---4---4-|
A|---2---2---2---2-|-----------------|-----------------|-----------------|
E|-----------------|-----------------|-----------------|-----------------|

G|---0---0---0---0-|-----------------|-----------------|-----------------|
D|-----------------|---2---2---2---2-|---4---4---4---4-|-----------4---4-|
A|-----------------|-----------------|-----------------|---1---1---------|
E|-----------------|-----------------|-----------------|-----------------|

G|-----------------|---0---0---0---0-|-----------------|-----------------|
D|-----------------|-----------------|---2---2---2---2-|---4---4---4---4-|
A|---2---2---2---2-|-----------------|-----------------|-----------------|
E|-----------------|-----------------|-----------------|-----------------|

G|---0---0---0---0-|-----------------|-----------------|-----------------|
D|-----------------|---2---2---2---2-|---4---4---4---4-|-----------------|
A|-----------------|-----------------|-----------------|---1-------------|
E|-----------------|-----------------|-----------------|-----------------|

G|-----------------|---0---0---0---0-|-----------------|-----------------|
D|-----------------|-----------------|---2---2---2---2-|---4---4---4---4-|
A|---2---2---2---2-|-----------------|-----------------|-----------------|
E|-----------------|-----------------|-----------------|-----------------|

G|---0---0---0---0-|-----------------|-----------------|-----------------|
D|-----------------|---2---2---2---2-|---4---4---4---4-|-----------4---4-|
A|-----------------|-----------------|-----------------|---1---1---------|
E|-----------------|-----------------|-----------------|-----------------|

G|-----------------|---0---0---0---0-|-----------------|-----------------|
D|-----------------|-----------------|---2---2---2---2-|---4---4---4---4-|
A|---2---2---2---2-|-----------------|-----------------|-----------------|
E|-----------------|-----------------|-----------------|-----------------|

G|---0---0---0---0-|-----------------|-----------------|-----------------|
D|-----------------|---2---2---2---2-|---4---4---4---4-|-----------4---4-|
A|-----------------|-----------------|-----------------|---1---1---------|
E|-----------------|-----------------|-----------------|-----------------|

[Outro]
G|-----------------|-----------------|-----------------|---2---2---2---2-|
D|-----------------|-----------------|---2---2---2---2-|-----------------|
A|---2---2---2---2-|---2---2---2---2-|-----------------|-----------------|
E|-----------------|-----------------|-----------------|-----------------|

G|-----------------|-----------------|-----------------|---2-------------|
D|-----------------|-----------------|---2---2---2---2-|-----------------|
A|---2---2---2---2-|---2---2---2---2-|-----------------|-----------------|
E|-----------------|-----------------|-----------------|-----------------|

G|-----------------|-----------------|-----------------|---2---2---2---2-|
D|-----------------|-----------------|---2---2---2---2-|-----------------|
A|---2---2---2---2-|---2---2---2---2-|-----------------|-----------------|
E|-----------------|-----------------|-----------------|-----------------|

G|-----------------|-----------------|-----------------|---2-------------|
D|-----------------|-----------------|---2---2---2---2-|-----------------|
A|---2---2---2---2-|---2---2---2---2-|-----------------|-----------------|
E|-----------------|-----------------|-----------------|-----------------|
Suggest correction
Give kudos to tab author, rate the tab!
1 2 3 4 5
comments
print report bad tab
guest
You may want to rate the tab now too:
select rating
Wanna post a correction for this tab? Suggest correction