Oops, an error
Loading. Please wait.

Мальчик-Гей Bass Tab

version 1
version 1

Whole song

  • Russian version of Malchik Gay.

Interactive

4 views 1 this week
no commentswrite comment
1 2 3 4 5
3 more votes to show rating
add to favorites
launch autoscroll
font size
0
reset
guitar tuner
Autoscroll
slow
fast
+/-
esc
set tempo
stop
Help us to improve Ultimate-Guitar.com Take our survey!
×
Author
Difficulty
novice
About this tab version
Russian version of Malchik Gay. Was this info helpful? Yes No
[Intro]
G|-----------------|-----------------|-----------------|-----------------|
D|-----------------|-----------------|-----------------|-----------------|
A|-----------------|-----------------|-----------------|-----------------|
E|-----------------|-----------------|-----------------|-----------------|

G|-----------------|-----------------|-----------------|-----------------|
D|-----------------|-----------------|-----------------|-----------------|
A|-----------------|-----------------|---0---0---0---0-|---3---3---3-----|
E|---1---1---1---1-|---0---0---0---0-|-----------------|-----------------|

G|-----------------|-----------------|-----------------|-----------------|
D|-----------------|-----------------|-----------------|-----------------|
A|-----------------|-----------------|---0---0---0---0-|-----------------|
E|---1---1---1---1-|---0---0---0---0-|-----------------|---3---3---3---3-|

G|-----------------|-----------------|-----------------|-----------------|
D|-----------------|-----------------|-----------------|-----------------|
A|-----------------|-----------------|---0---0---0---0-|---3---3---------|
E|---1---1---1---1-|---0---0---0---0-|-----------------|-----------------|

[Verse]
G|-----------------|-----------------|-----------------|-----------------|
D|-----------------|-----------------|-----------------|-----------------|
A|---0---0---0---0-|---3---3---3---3-|-----------------|-----------------|
E|-----------------|-----------------|---1---1---1---1-|---1---1---1---1-|

G|-----------------|-----------------|-----------------|-----------------|
D|-----------------|-----------------|-----------------|-----------------|
A|---0---0---0---0-|---3---3---3---3-|-----------------|-----------------|
E|-----------------|-----------------|---1---1---1---1-|---3---3---3---3-|

G|-----------------|-----------------|-----------------|-----------------|
D|-----------------|-----------------|-----------------|-----------------|
A|---0---0---0---0-|---3---3---3---3-|-----------------|-----------------|
E|-----------------|-----------------|-----------------|-----------------|

[Chorus]
G|-----------------|-----------------|-----------------|-----------------|
D|-----------------|-----------------|-----------------|-----------------|
A|-----------------|-----------------|---3---3---3---3-|---0---0---0---0-|
E|---1---1---1---1-|---3---3---3---3-|-----------------|-----------------|

G|-----------------|-----------------|-----------------|-----------------|
D|---0---0---0---0-|-----------------|-----------------|-----------------|
A|-----------------|-----------------|---3---3---3---3-|---0---0---0---0-|
E|-----------------|---3---3---3---3-|-----------------|-----------------|

G|-----------------|-----------------|-----------------|-----------------|
D|-----------------|-----------------|-----------------|-----------------|
A|-----------------|-----------------|---0---0---0---0-|-----------------|
E|---1---1---1---1-|---0---0---0---0-|-----------------|---3---3---3---3-|

G|-----------------|-----------------|-----------------|-----------------|
D|-----------------|-----------------|-----------------|-----------------|
A|-----------------|-----------------|---0---0---0---0-|---3---3---------|
E|---1---1---1---1-|---0---0---0---0-|-----------------|-----------------|

[Verse]
G|-----------------|-----------------|-----------------|-----------------|
D|-----------------|-----------------|-----------------|-----------------|
A|---0---0---0---0-|---3---3---3---3-|-----------------|-----------------|
E|-----------------|-----------------|---1---1---1---1-|---1---1---1---1-|

G|-----------------|-----------------|-----------------|-----------------|
D|-----------------|-----------------|-----------------|-----------------|
A|---0---0---0---0-|---3---3---3---3-|-----------------|-----------------|
E|-----------------|-----------------|---1---1---1---1-|---3---3---3---3-|

G|-----------------|-----------------|-----------------|-----------------|
D|---0---0---0---0-|---0---0---0---0-|-----------------|-----------------|
A|-----------------|-----------------|-----------------|-----------------|
E|-----------------|-----------------|-----------------|-----------------|

[Chorus]
G|-----------------|-----------------|-----------------|-----------------|
D|-----------------|-----------------|-----------------|-----------------|
A|-----------------|-----------------|---3---3---3---3-|---0---0---0---0-|
E|---1---1---1---1-|---3---3---3---3-|-----------------|-----------------|

G|-----------------|-----------------|-----------------|-----------------|
D|---0---0---0---0-|-----------------|-----------------|-----------------|
A|-----------------|-----------------|---3---3---3---3-|---0---0---0---0-|
E|-----------------|---3---3---3---3-|-----------------|-----------------|

[Interlude]
G|-----------------|-----------------|-----------------|-----------------|
D|-----------------|-----------------|-----------------|-2------0--------|
A|-----------------|-----------------|-0---------------|-------------3---|
E|-1---------------|-3---------------|-----------------|-----------------|

G|-----------------|-----------------|-----------------|-----------------|
D|-----------------|-----------------|-----------------|-----------------|
A|-----------------|-----------------|-0---------------|-3---------------|
E|-1---------------|-3---------------|-----------------|-----------------|

G|-----------------|-----------------|-----------------|-----------------|
D|-----------------|-----------------|-----------------|-----------------|
A|-----------------|-----------------|---0---0---0---0-|-----------------|
E|---1---1---1---1-|---0---0---0---0-|-----------------|---3---3---3---3-|

G|-----------------|-----------------|-----------------|-----------------|
D|-----------------|-----------------|-----------------|-----------------|
A|-----------------|-----------------|---0---0---0---0-|---3---3---3---3-|
E|---1---1---1---1-|---0---0---0---0-|-----------------|-----------------|

[Bridge]
G|-----------------|-----------------|-----------------|-----------------|
D|-----------------|-----------------|-----------------|-----------------|
A|-----------------|-----------------|-----------------|-----------------|
E|-----------------|-----------------|-----------------|-----------------|

G|-----------------|-----------------|-----------------|-----------------|
D|-----------------|-----------------|-----------------|-----------------|
A|-----------------|-----------------|-----------------|-----------------|
E|-----------------|-----------------|-----------------|-----------------|

[Chorus]
G|-----------------|-----------------|-----------------|-----------------|
D|-----------------|-----------------|-----------------|-----------------|
A|-----------------|-----------------|---3---3---3---3-|---0---0---0---0-|
E|---1---1---1---1-|---3---3---3---3-|-----------------|-----------------|

G|-----------------|-----------------|-----------------|-----------------|
D|---0---0---0---0-|-----------------|-----------------|-----------------|
A|-----------------|-----------------|---3---3---3---3-|---0---0---0---0-|
E|-----------------|---3---3---3---3-|-----------------|-----------------|

G|-----------------|-----------------|-----------------|-----------------|
D|-----------------|-----------------|-----------------|-----------------|
A|-----------------|-----------------|---0---0---0---0-|-----------------|
E|---1---1---1---1-|---0---0---0---0-|-----------------|---3---3---3---3-|

G|-----------------|-----------------|-----------------|-----------------|
D|-----------------|-----------------|-----------------|-----------------|
A|-----------------|-----------------|---0---0---0---0-|---3---3---------|
E|---1---1---1---1-|---0---0---0---0-|-----------------|-----------------|
Suggest correction
Give kudos to tab author, rate the tab!
1 2 3 4 5
comments
print report bad tab
guest
You may want to rate the tab now too:
select rating
Wanna post a correction for this tab? Suggest correction