Oops, an error
Loading. Please wait.

Клоуны Bass Tab

version 1
version 1

Whole song

  • Russian version of Clowns by T.A.T.u.

Interactive

1 view 1 this week
no commentswrite comment
1 2 3 4 5
3 more votes to show rating
add to favorites
launch autoscroll
font size
0
reset
guitar tuner
Autoscroll
slow
fast
+/-
esc
set tempo
stop
Help us to improve Ultimate-Guitar.com Take our survey!
×
Author
Difficulty
novice
About this tab version
Russian version of Clowns by T.A.T.u. Was this info helpful? Yes No
[Intro]
G|-----------------|-----------------|-----------------|-----------------|
D|-----------------|-----------------|-----------------|-----------------|
A|-----------------|-----------------|-----------------|-----------------|
E|-----------------|-----------------|-----------------|-----------------|

G|-----------------|-----------------|-----------------|-----------------|
D|-----------------|-----------------|-----------------|-----------------|
A|-----------------|-----------------|-----------------|-----------------|
E|-----------------|-----------------|-----------------|-----------------|

G|-----------------|-----------------|-----------------|-----------------|
D|-----------------|-3-----3-3-----3-|-1-----1-1-----1-|-0-----0-0-----0-|
A|-3-----3-3-----3-|-----------------|-----------------|-----------------|
E|-----------------|-----------------|-----------------|-----------------|

G|-----------------|-----------------|-----------------|-----------------|
D|-----------------|-3-----3-3-----3-|-1-----1-1-----1-|-0-----0-0-------|
A|-3-----3-3-----3-|-----------------|-----------------|-----------------|
E|-----------------|-----------------|-----------------|-----------------|

[Verse]
G|-----------------|-----------------|-----------------|-----------------|
D|-----------------|-3-------3-------|-1-------1-------|-0-------0-------|
A|-3-------3-------|-----------------|-----------------|-----------------|
E|-----------------|-----------------|-----------------|-----------------|

G|-----------------|-----------------|-----------------|-----------------|
D|-----------------|-3-------3-------|-1-------1-------|-0-------0-------|
A|-3-------3-------|-----------------|-----------------|-----------------|
E|-----------------|-----------------|-----------------|-----------------|

[Pre-Chorus]
G|-----------------|-----------------|-----------------|-----------------|
D|-----------------|-3-----3-3-----3-|-1-----1-1-----1-|-0---------------|
A|-3-----3-3-----3-|-----------------|-----------------|-----------------|
E|-----------------|-----------------|-----------------|-----------------|

G|-----------------|-----------------|-----------------|-----------------|
D|-----------------|-3-----3-3-----3-|-1-----1-1-----1-|-----------------|
A|-3-----3-3-----3-|-----------------|-----------------|-----------------|
E|-----------------|-----------------|-----------------|-----------------|

[Chorus]
G|-----------------|-----------------|-----------------|-----------------|
D|-----------------|-----------------|-----------------|-----------------|
A|-----------------|-----------------|-----------------|-----------------|
E|-----------------|-----------------|-----------------|-----------------|

G|-----------------|-----------------|-----------------|-----------------|
D|-----------------|-----------------|-----------------|-----------------|
A|-----------------|-----------------|-----------------|-----------------|
E|-----------------|-----------------|-----------------|-----------------|

G|-----------------|-----------------|-----------------|-----------------|
D|-----------------|-3-----3-3-----3-|-1-----1-1-----1-|-0-----0-0-----0-|
A|-3-----3-3-----3-|-----------------|-----------------|-----------------|
E|-----------------|-----------------|-----------------|-----------------|

G|-----------------|-----------------|-----------------|-----------------|
D|-----------------|-3-----3-3-----3-|-1-----1-1-----1-|-----------------|
A|-3-----3-3-----3-|-----------------|-----------------|-----------------|
E|-----------------|-----------------|-----------------|-----------------|

[Interude]
G|-----------------|-----------------|-----------------|-----------------|
D|-----------------|-3-----3-3-----3-|-1-----1-1-----1-|-0-----0-0-----0-|
A|-3-----3-3-----3-|-----------------|-----------------|-----------------|
E|-----------------|-----------------|-----------------|-----------------|

G|-----------------|-----------------|-----------------|-----------------|
D|-----------------|-3-----3-3-----3-|-1-----1-1-----1-|-0-----0-0-----0-|
A|-3-----3-3-----3-|-----------------|-----------------|-----------------|
E|-----------------|-----------------|-----------------|-----------------|

G|-----------------|-----------------|-----------------|-----------------|
D|-----------------|-3-----3-3-----3-|-1-----1-1-----1-|-0-----0-0-----0-|
A|-3-----3-3-----3-|-----------------|-----------------|-----------------|
E|-----------------|-----------------|-----------------|-----------------|

G|-----------------|-----------------|-----------------|-----------------|
D|-----------------|-3-----3-3-----3-|-1-----1-1-----1-|-----------------|
A|-3-----3-3-----3-|-----------------|-----------------|-----------------|
E|-----------------|-----------------|-----------------|-----------------|

[Verse]
G|-----------------|-----------------|-----------------|-----------------|
D|-----------------|-3-----3-3-----3-|-1-----1-1-----1-|-0-----0-0-----0-|
A|-3-----3-3-----3-|-----------------|-----------------|-----------------|
E|-----------------|-----------------|-----------------|-----------------|

G|-----------------|-----------------|-----------------|-----------------|
D|-----------------|-3-----3-3-----3-|-1-----1-1-----1-|-0-----0-0-----0-|
A|-3-----3-3-----3-|-----------------|-----------------|-----------------|
E|-----------------|-----------------|-----------------|-----------------|

G|-----------------|-----------------|-----------------|-----------------|
D|-----------------|-3-----3-3-----3-|-1-----1-1-----1-|-0-----0-0-----0-|
A|-3-----3-3-----3-|-----------------|-----------------|-----------------|
E|-----------------|-----------------|-----------------|-----------------|

G|-----------------|-----------------|-----------------|-----------------|
D|-----------------|-3-----3-3-----3-|-1-----1-1-----1-|-0-----0-0-----0-|
A|-3-----3-3-----3-|-----------------|-----------------|-----------------|
E|-----------------|-----------------|-----------------|-----------------|

[Chorus]
G|-----------------|-----------------|-----------------|-----------------|
D|-----------------|-----------------|-----------------|-----------------|
A|-----------------|-----------------|-----------------|-----------------|
E|-----------------|-----------------|-----------------|-----------------|

G|-----------------|-----------------|-----------------|-----------------|
D|-----------------|-----------------|-----------------|-----------------|
A|-----------------|-----------------|-----------------|-----------------|
E|-----------------|-----------------|-----------------|-----------------|

G|-----------------|-----------------|-----------------|-----------------|
D|-----------------|-3-----3-3-----3-|-1-----1-1-----1-|-0-----0-0-----0-|
A|-3-----3-3-----3-|-----------------|-----------------|-----------------|
E|-----------------|-----------------|-----------------|-----------------|

G|-----------------|-----------------|-----------------|-----------------|
D|-----------------|-3-----3-3-----3-|-1-----1-1-----1-|-----------------|
A|-3-----3-3-----3-|-----------------|-----------------|-----------------|
E|-----------------|-----------------|-----------------|-----------------|

[Outro]
G|-----------------|-----------------|-----------------|-----------------|
D|-----------------|-3-----3-3-----3-|-1-----1-1-----1-|-0-----0-0-----0-|
A|-3-----3-3-----3-|-----------------|-----------------|-----------------|
E|-----------------|-----------------|-----------------|-----------------|

G|-----------------|-----------------|-----------------|-----------------|
D|-----------------|-3-----3-3-----3-|-1-----1-1-----1-|-0-----0-0-----0-|
A|-3-----3-3-----3-|-----------------|-----------------|-----------------|
E|-----------------|-----------------|-----------------|-----------------|

G|-----------------|-----------------|-----------------|-----------------|
D|-----------------|-3-----3-3-----3-|-1-----1-1-----1-|-0-----0-0-----0-|
A|-3-----3-3-----3-|-----------------|-----------------|-----------------|
E|-----------------|-----------------|-----------------|-----------------|

G|-----------------|-----------------|-----------------|-----------------|
D|-----------------|-3-----3-3-----3-|-1-----1-1-----1-|-----------------|
A|-3-----3-3-----3-|-----------------|-----------------|-----------------|
E|-----------------|-----------------|-----------------|-----------------|
Suggest correction
Give kudos to tab author, rate the tab!
1 2 3 4 5
comments
print report bad tab
guest
You may want to rate the tab now too:
select rating
Wanna post a correction for this tab? Suggest correction