Oops, an error
Loading. Please wait.

Mysteryland Chords

version 2
version 2

Whole song

  • Some different chords... better Intro/outro with b... Show more

Interactive

43 views 3 this week
no commentswrite comment
1 2 3 4 5
2 more votes to show rating
add to favorites
launch autoscroll
font size
0
reset
transpose
0
reset
simplify chords
display chords
guitar tuner
Autoscroll
slow
fast
+/-
esc
set tempo
stop
Help us to improve Ultimate-Guitar.com Take our survey!
×
Author
Difficulty
Capo
novice
2nd fret
About this tab version
Some different chords... better Intro/outro with baseline... parts between verse and chorus... Was this info helpful? Yes No
Capo: +2

[Intro]
              Am                         Am           F                 Am
e|--------------|-----0-0---------|-----0-0---------|-----------------|-----------------|   (2x)
B|--------------|---------1-1-0---|---------1-1-0---|-----1-1-0-0-----|-----------------|
G|------------0-|-2-2-----------0-|-2-2-----------0-|-------------0-0-|-0--0h2----------|
D|--------------|-----------------|-----------------|-3-3-------------|-0--0h2----------|
A|--------------|-0-----0-0-------|-0-----0-0-------|-----------------|-0-------0-0-----|
E|--------------|-----------------|-----------------|-1-----1-1-------|-----------------|


[Verse]
      Am
Hallo du mein süsses Kind, auf der Party wo wir sind,
Fmaj7
ist doch nun schon lange nichts mehr los.
        Am
Dir war langweilig darum bist du hier, doch hier ist's dumm
    Fmaj7
und deine Sehnsucht ist noch immer gross,
      G
deine Sehnsucht ist noch immer gross.
         Am
Komm mit mir und du wirst seh`n, wenn wir durch den Spiegel geh`n,
Fmaj7
wirst du deinen Augen nicht mehr trauen.
         Am
Hab doch Mut, vertraue mir, diese Welt gefällt auch dir,
         Fmaj7
voll vom schönsten und unvorstellbarem Grauen,
         G
voll vom schönsten und unvorstellbarem Grauen,
         Fmaj7
doch was hässlich scheint, wird plötzlich schön,
         G
Hab doch Mut, komm doch mit und du wirst seh`n.


e|-------------------|
B|-------------------|
G|-------------------|
D|-------------------|
A|--------3-3-2------|
E|--3-3-3-------3----|


[Chorus]
Am              F               G
   Mysteryland     Mysteryland                
                                                  Am
 Du hast zu lang gewartet, ich nehm` dich bei der Hand.
                F               G
   Mysteryland     Mysteryland
                                                    Am
 Es steht in deinen Karten, wir geh`n jetzt in mein Land.


[Interlude]
              Am                         Am           F                 Am
e|--------------|-----0-0---------|-----0-0---------|-----------------|-----------------|   (2x)
B|--------------|---------1-1-0---|---------1-1-0---|-----1-1-0-0-----|-----------------|
G|------------0-|-2-2-----------0-|-2-2-----------0-|-------------0-0-|-0--0h2----------|
D|--------------|-----------------|-----------------|-3-3-------------|-0--0h2----------|
A|--------------|-0-----0-0-------|-0-----0-0-------|-----------------|-0-------0-0-----|
E|--------------|-----------------|-----------------|-1-----1-1-------|-----------------|


[Verse]
    Am
Wer feige ist hat Mut, nur was billig scheint ist gut,
     Fmaj7
und gestern wird zu morgen.
           Am
Schau nach vorn, da liegt dein Glück, schau zum Spiegel nicht zurück,
       Fmaj7
hinter ihm liegen deine Sorgen,
       G
hinter ihm liegen deine Sorgen.
      Am
Jetzt bin ich ein Pirat, sieh mein Schiff in voller Fahrt,
     Fmaj7
ich halte dich gefangen.
         Am
Auf 'ner Insel ganz versteckt, lasse ich dich nicht mehr weg,
   Fmaj7
du bist zu weit gegangen,
    G
wir sind bist zu weit gegangen.
      Fmaj7                              G
Deine Sehnsucht hat jetzt Sinn, nimm sie mit, du weisst wohin.

e|-------------------|
B|-------------------|
G|-------------------|
D|-------------------|
A|--------3-3-2------|
E|--3-3-3-------3----|


[Chorus]
Am               F              G
   Mysteryland      Mysteryland                       
                                                  Am
 Du hast zu lang gewartet, ich nehm` dich bei der Hand.
                 F               Dm7
   Mysteryland      Mysteryland
                                Em7                 Am
 Es steht in deinen Karten, wir geh`n jetzt in mein Land.


[Outro]
              Am                         Am           F                 Am
e|--------------|-----0-0---------|-----0-0---------|-----------------|-----------------|   (4x)
B|--------------|---------1-1-0---|---------1-1-0---|-----1-1-0-0-----|-----------------|
G|------------0-|-2-2-----------0-|-2-2-----------0-|-------------0-0-|-0--0h2----------|
D|--------------|-----------------|-----------------|-3-3-------------|-0--0h2----------|
A|--------------|-0-----0-0-------|-0-----0-0-------|-----------------|-0-------0-0-----|
E|--------------|-----------------|-----------------|-1-----1-1-------|-----------------|

Am              F              Am               F              Am           Fmaj7     Am6
   Mysteryland     Mysteryland     Mysteryland    Mysteryland    Mys-tery---land
Suggest correction
Give kudos to tab author, rate the tab!
1 2 3 4 5
comments
print report bad tab
guest
You may want to rate the tab now too:
select rating
Wanna post a correction for this tab? Suggest correction