Oops, an error
Loading. Please wait.

Päästin Sinut Irti Chords

19 views 1 this week
no commentswrite comment
1 2 3 4 5
2 more votes to show rating
add to favorites
launch autoscroll
font size
0
reset
transpose
0
reset
simplify chords
display chords
guitar tuner
Autoscroll
slow
fast
+/-
esc
set tempo
stop
Help us to improve Ultimate-Guitar.com Take our survey!
×
Author
Difficulty
intermediate
About this tab version
Includes intro, solo and outro tabs. You can choose to play this with chords or tabs. Was this info helpful? Yes No
[Intro]

  Am     F        G     Am       Am     F    G        Em

e|-5-----5----3-|--3--0-3-5-5--|--5-----5----3-|--3---7-9-7--|
B|-5-3---3--6-3-|--3----3-5-5--|--5-3---3--6-3-|--3---5-8-5--|
G|-----6--------|--------------|------6--------|-------------|
D|--------------|--------------|---------------|-------------|
A|--------------|--------------|---------------|-------------|
E|--------------|--------------|---------------|-------------|

  Am     F        G     Am       Am     F    G                G

e|-5-----5----3-|--3--0-3-5-5--|--5-----5----3-|-------------|------------|
B|-5-3---3--6-3-|--3----3-5-5--|--5-3---3--6-3-|-------------|------------|
G|-----6--------|--------------|------6--------|-------------|------------|
D|--------------|--------------|---------------|-------------|------------|
A|--------------|--------------|---------------|-------------|------------|
E|--------------|--------------|---------------|-------------|------------|


[Verse 1]

Am
Päästän sinut irti
              G
Päästän sinut kokonaan
Dm7
Annan sinun mennä
             Em7
Me tahdoimme hellittää
Am
Luovuin sovinnolla
            G
Tästäkin me selvittiin
Dm7
Nostettiin jo malja
            Em7
Loppulaulut laulettiin
F             G             Am
Vaik en tiedä minne meen mä meen
F            G          Am
Vielä meille päivä valkenee


[Chorus]

Dm7                   Em7
Onnellinen sinä, onnellinen minä
            Am
Muuta ei me tarvita, ei haluta
Dm7                   Em7
Onnellinen sinä, onnellinen minä
            Am
Muuta ei me tarvita, ei haluta
Dm7                   Em7
Onnellinen sinä, onnellinen minä
            Am
Muuta ei me tarvita, ei haluta


[Solo]

  Am     F        G     Am       Am     F    G        Em

e|-5-----5----3-|--3--0-3-5-5--|--5-----5----3-|--3---7-9-7--|
B|-5-3---3--6-3-|--3----3-5-5--|--5-3---3--6-3-|--3---5-8-5--|
G|-----6--------|--------------|------6--------|-------------|
D|--------------|--------------|---------------|-------------|
A|--------------|--------------|---------------|-------------|
E|--------------|--------------|---------------|-------------|

  Am     F        G     Am       Am     F    G                G

e|-5-----5----3-|--3--0-3-5-5--|--5-----5----3-|-------------|------------|
B|-5-3---3--6-3-|--3----3-5-5--|--5-3---3--6-3-|-------------|------------|
G|-----6--------|--------------|------6--------|-------------|------------|
D|--------------|--------------|---------------|-------------|------------|
A|--------------|--------------|---------------|-------------|------------|
E|--------------|--------------|---------------|-------------|------------|


[Verse 2]

Am
Säästän nämä kirjeet
                G
Joissa niin mua rakastit
   Dm7
Ei lakkaa olemasta
                  Em7
Nuo lauseet jotka kirjoitit
Am
Liikuttaa mua vielä
                 G
Mä kuinka niihin vastasin
       Dm7
Jos ei hyvästi voi jättää
               Em7
Nyt sanotaanko näkemiin
F             G             Am
Vaik et tiedä minne meet sä meet
F            G          Am
Vielä meille päivä valkenee


[Chorus]

Dm7                   Em7
Onnellinen sinä, onnellinen minä
            Am
Muuta ei me tarvita, ei haluta
Dm7                   Em7
Onnellinen sinä, onnellinen minä
            Am
Muuta ei me tarvita, ei haluta
Dm7                   Em7
Onnellinen sinä, onnellinen minä
            Am
Muuta ei me tarvita, ei haluta
Dm7                   Em7
Onnellinen sinä, onnellinen minä
            Am
Muuta ei me tarvita, ei haluta


[Instrumental]
F  Dm  Am      x4


[Chorus]

Dm7                   Em7
Onnellinen sinä, onnellinen minä
            Am
Muuta ei me tarvita, ei haluta
Dm7                   Em7
Onnellinen sinä, onnellinen minä
            Am
Muuta ei me tarvita, ei haluta
Dm7                   Em7
Onnellinen sinä, onnellinen minä
            Am
Muuta ei me tarvita, ei haluta
Dm7                   Em7
Onnellinen sinä, onnellinen minä
            Am
Muuta ei me tarvita, ei haluta


[Outro]

  Am     F        G     Am       Am     F    G        Em

e|-5-----5----3-|--3--0-3-5-5--|--5-----5----3-|--3---7-9-7--|
B|-5-3---3--6-3-|--3----3-5-5--|--5-3---3--6-3-|--3---5-8-5--|
G|-----6--------|--------------|------6--------|-------------|
D|--------------|--------------|---------------|-------------|
A|--------------|--------------|---------------|-------------|
E|--------------|--------------|---------------|-------------|

  Am     F        G     Am       Am     F    G                

e|-5-----5----3-|--3--0-3-5-5--|--5-----5----3-|-------------|------------|
B|-5-3---3--6-3-|--3----3-5-5--|--5-3---3--6-3-|-------------|------------|
G|-----6--------|--------------|------6--------|-------------|------------|
D|--------------|--------------|---------------|-------------|------------|
A|--------------|--------------|---------------|-------------|------------|
E|--------------|--------------|---------------|-------------|------------|
Suggest correction
Give kudos to tab author, rate the tab!
1 2 3 4 5
comments
print report bad tab
guest
You may want to rate the tab now too:
select rating
Wanna post a correction for this tab? Suggest correction