Oops, an error
Loading. Please wait.

Vielä Olet Suruton Chords

31 views 1 this week
no commentswrite comment
1 2 3 4 5
1 last vote to show rating
add to favorites
launch autoscroll
font size
0
reset
transpose
0
reset
simplify chords
display chords
guitar tuner
Autoscroll
slow
fast
+/-
esc
set tempo
stop
Help us to improve Ultimate-Guitar.com Take our survey!
×
Author
Difficulty
intermediate
About this tab version
Includes intro, solo and outro tabs. 2nd guitar can play tabs during the verses (listen to the original version). Was this info helpful? Yes No
[Intro]

  Dm          Cm          Dm          Cm
e|-----------|-----------|-----------|-----------|
B|-----------|-----------|-----------|-----------|
G|-----------|-----------|-----------|-----------|
D|-3-3-3-0---|-1-1-1-----|-3-3-3-0---|-----------| x2
A|-----------|-------3---|-----------|-3--2---3--|
E|-----------|-----------|-----------|-----------|


[Verse 1]

   Dm                    C
No turhaan sä minust oot huolissas
       Dm                   C
Täällä kaikki on hyvin taas
Dm               C        Dm
Yösi voit nukkua rauhassa
       Dm                C
Vaikka sydämesi pohjista huokailet
   Dm                 C
Kaiken sinun vuoksesi teen
Dm                 C
Kiiruhdan huomenna luoksesi
F                     G
Rintaas vasten tahdon painaa pään


[Chorus]

Bm7       A   F#m       G          Bm7
Kaikki kääntyy   vielä olet suruton
        A                F#m      G
Parhain päin saat päiväs taivaltaa
Bm7       A   F#m      G         Bm7
Kaikki muuttuu   etkä ole onneton
        A             F#m      G
Kohtapuoliin oot taas ennallaan


[Solo]

  Dm          Cm          Dm          Cm
e|-----------|-----------|-----------|-----------|
B|-----------|-----------|-----------|-----------|
G|-----------|-----------|-----------|-----------|
D|-3-3-3-0---|-1-1-1-----|-3-3-3-0---|-----------|
A|-----------|-------3---|-----------|-3--2---3--|
E|-----------|-----------|-----------|-----------|


[Verse 2]

       Dm               C
Vaikka maailma palaa ja roihuaa
   Dm                  C
Mä kannan sua harteilla
C     Dm                   C         Dm
Meitä mikään ei täällä voi lannistaa
   Dm               C
Kuulen sinun äänesi sanoissani
   Dm                  C
Mä puhun sinun äänelläs
Dm                 Am
Katsot mietteissäs lävitseni
F                     G
Sä oot kauniimpi kuin kukaan muu


[Chorus]

Bm7       A   F#m       G          Bm7
Kaikki kääntyy   vielä olet suruton
        A                F#m      G
Parhain päin saat päiväs taivaltaa
Bm7       A   F#m      G         Bm7
Kaikki muuttuu   etkä ole onneton
        A             F#m      G
Kohtapuoliin oot taas ennallaan


[Instrumental]
Bm7  A  F#m  G     x4


[Chorus]

Bm7       A   F#m       G          Bm7
Kaikki kääntyy   vielä olet suruton
        A                F#m      G
Parhain päin saat päiväs taivaltaa
Bm7       A   F#m      G         Bm7
Kaikki muuttuu   etkä ole onneton
        A             F#m      G
Kohtapuoliin oot taas ennallaan


[Outro]

  Dm          Cm          Dm          Cm          Dm          Cm          Dm
e|-----------|-----------|-----------|-----------|-----------|-----------|-----------|
B|-----------|-----------|-----------|-----------|-----------|-----------|-----------|
G|-----------|-----------|-----------|-----------|-----------|-----------|-----------|
D|-3-3-3-0---|-1-1-1-----|-3-3-3-0---|-----------|-3-3-3-0---|-1-1-1-----|-3-3-3-0---|
A|-----------|-------3---|-----------|-3--2---3--|-----------|-------3---|-----------|
E|-----------|-----------|-----------|-----------|-----------|-----------|-----------|
Suggest correction
Give kudos to tab author, rate the tab!
1 2 3 4 5
comments
print report bad tab
guest
You may want to rate the tab now too:
select rating
Wanna post a correction for this tab? Suggest correction