Oops, an error
Loading. Please wait.

Ich Hör Die Single Nicht Tab

43 views 3 this week
no commentswrite comment
1 2 3 4 5
3 more votes to show rating
add to favorites
launch autoscroll
font size
0
reset
how to read this tab
guitar tuner
Autoscroll
slow
fast
+/-
esc
set tempo
stop
Help us to improve Ultimate-Guitar.com Take our survey!
×
Author
[Intro]
e|---------------------------------------------------------------------------|
B|---------------------------------------------------------------------------|
G|---------------------------------------------------------------------------|
D|-x-x-x-x-------------------------------------------------------------------|
A|-x-x-x-x-------------------------------------------------------------------|
E|-x-x-x-x-------------------------------------------------------------------|

[Verse 1+2]
(Gitarre 1)
    E            C  G  A
e|---------------------------------------------------------------------------|
B|---------------------------------------------------------------------------|
G|---------------5-----------------------------------------------------------|
D|--2------------5--5--7-----------------------------------------------------|
A|--2------------3--5--7-----------------------------------------------------|
E|--0---------------3--5-----------------------------------------------------|
 
(Gitarre 2)   
    E
e|---------------------------------------------------------------------------|
B|---------------------------------------------------------------------------|
G|--9-8----------------------------------------------------------------------|
D|--9-8----------------------------------------------------------------------|
A|--7-6----------------------------------------------------------------------|
E|---------------------------------------------------------------------------|

[Chorus 1+2]
     E  C  G     A      B              E
e|---------------------------------------------------------------------------|
B|---------------------------------------------------------------------------|
G|------5------------------------------9-------------------------------------|
D|---2--5--5-----7------9--------------9-------------------------------------|
A|---2--3--5-----7------9--------------7-------------------------------------|
E|---0-----3-----5------7----------------------------------------------------|

[Bridge]
    E  A  D  E
e|---------------------------------------------------------------------------|
B|---------------------------------------------------------------------------|
G|--9-----7--9---------------------------------------------------------------|
D|--9--7--7--9---------------------------------------------------------------|
A|--7--7--5--7---------------------------------------------------------------|
E|-----5---------------------------------------------------------------------|



************************************

| x  Dead note

************************************
Suggest correction
Give kudos to tab author, rate the tab!
1 2 3 4 5
comments
print report bad tab
guest
You may want to rate the tab now too:
select rating
Wanna post a correction for this tab? Suggest correction