Oops, an error
Loading. Please wait.

Ikävä Ihollesi Chords

67 views 15 this week
no commentswrite comment
1 2 3 4 5
3 more votes to show rating
add to favorites
launch autoscroll
font size
0
reset
transpose
0
reset
display chords
guitar tuner
Autoscroll
slow
fast
+/-
esc
set tempo
stop
Help us to improve Ultimate-Guitar.com Take our survey!
×
Author
Capo
4th fret
Happoradio – Ikävä ihollesi



[Standard tuning – Capo on 4th fret]


Intro: 
( Em     Am     C     G  D  )x2


Em    Am           C        G    D 
Yksin kallion kolossa savun keskellä

Em    Am                C           G     D
ääniä vieraita kuuntelen   autot ei pysähdy

Em       Am         C         G D
nöyryys lukee kelloa   mittaa aikaa

Em        Am            C           G  D
taksi voi tulla vieläkin   jono voi kestää


-----Chorus---------------------------------
Em     D     C             Bm     (D)
 ikävä ihollesi    kaipaus kiinni sinuun

Em     D       C            Bm   (D)
tahtoo tajuntaasi     tarve tahdotuksi

Em    D     C              Bm        A    A
ikävä ihollesi     viettää vierellesi
---------------------------------------------

Interlude = Intro:
( Em     Am     C     G  D )x2


Em   Am          C        G   D
vainoharha seinälle pirua piirtää

Em     Am         C          G   D
varma pahimmasta jo    sydän jyskyttää

Em      Am         C           G    D
vaiti   pysyy puhelin    lehti kolahtaa

   Em       Am            C         G   D
ja kaupunki takana ikkunan    alkaa  elää

-----Chorus---------------------------------
Em     D     C             Bm     (D)
 ikävä ihollesi    kaipaus kiinni sinuun

Em     D       C            Bm   (D)
tahtoo tajuntaasi     tarve tahdotuksi

Em    D     C              Bm        A    A
ikävä ihollesi     viettää vierellesi
--------------------------------------------

-----Chorus 2-------------------------------
   Em     D        C          Bm       Em
ja pelko pieluksella   valvon yötäni pois

(Em)    D          C        Bm    D
tunti   kerrallaan   odotan aikaa pois

Em     D     C            Bm        A    A
ikävä ihollesi    viettää vierellesi
---------------------------------------------

Solo:
Play interlude / intro four times    

OR   

alternatively you can choose to play it  with the riff:

Start with this instead of the second  ’A’  at the end of the chorus:

e|-2--3--2--0---|
B|------------3-|
G|--------------| 
D|--------------|
A|--------------|
E|--------------|


Then play this:


e|-0-0-3–0–5–5–5–3---------0—--3-2--|
B|-----------------5---1-1-—-1------|
G|-------------------3--------------|   x4 
D|----------------------------------|
A|----------------------------------|
E|----------------------------------|

-----Chorus----------------------------------
Em     D     C             Bm     (D)
 ikävä ihollesi    kaipaus kiinni sinuun

Em     D       C            Bm   (D)
tahtoo tajuntaasi     tarve tahdotuksi

Em    D     C              Bm        A    A
ikävä ihollesi     viettää vierellesi
---------------------------------------------

Outro / solo 2:

e|-0-2-3–2-0-5--0-2-3-2-0---|
B|------------------------3-|
G|--------------------------|    x3
D|--------------------------|
A|--------------------------|
E|--------------------------|


e|-5–5–5–5–2–3–2–0---|
B|-----------------3-|
G|-------------------|   x1
D|-------------------|
A|-------------------|
E|-------------------|


e|-0-2-3–2-0-5--0-2-3-2-0---|
B|------------------------3-|
G|--------------------------|    x3
D|--------------------------|
A|--------------------------|
E|--------------------------|


e|—5–3–5–3–0--2–3–2–0---0-|
B|--------------------3---|
G|------------------------|      x1
D|------------------------|
A|------------------------|
E|------------------------|

Suggest correction
Give kudos to tab author, rate the tab!
1 2 3 4 5
comments
print report bad tab
guest
You may want to rate the tab now too:
select rating
Wanna post a correction for this tab? Suggest correction