Oops, an error
Loading. Please wait.

Apprends A Dormir Tab

version 1
version 1

Whole song

Interactive

16 views 1 this week
no commentswrite comment
1 2 3 4 5
3 more votes to show rating
add to favorites
launch autoscroll
font size
0
reset
how to read this tab
guitar tuner
Autoscroll
slow
fast
+/-
esc
set tempo
stop
Help us to improve Ultimate-Guitar.com Take our survey!
×
Author
Difficulty
newg [tm] 45,817
novice
---------------------------------------------------------------------------------------------------
                               Noir Désir - Apprends à dormir 
---------------------------------------------------------------------------------------------------

Album : Veuillez rendre l'âme (à qui elle appartient) (1989)
Tempo : 140
E-mail: gwendal.mollo@orange.fr
Tabbed by: newg    (http://profile.ultimate-guitar.com/newg/)

Voir mon fichier guitar pro/powertab pour plus d'info.


[Intro]
           Vibrato \
e|-------|--12---|
B|-------|--12---|
G|-------|--12---|
D|-------|--12---|
A|-------|--12---|
E|-------|-------|

    Am                      G                       Em   
e|--0-----------0-----0--0--3-----3--3--3--3--3--|--0-----0--0--0--0--0-----0-----0--0--0--0--0-|
B|--1-----------1-----1--1--0-----0--0--0--0--0--|--0-----0--0--0--0--0-----0-----0--0--0--0--0-|
G|--2-----------2-----2--2--0-----0--0--0--0--0--|--0-----0--0--0--0--0-----0-----0--0--0--0--0-|
D|--2-----------2-----2--2--0-----0--0--0--0--0--|--2-----2--2--2--2--2-----2-----2--2--2--2--2-|
A|--0-----------0-----0--0--2-----2--2--2--2--2--|--2-----2--2--2--2--2-----2-----2--2--2--2--2-|
E|--------------------------3-----3--3--3--3--3--|--0-----0--0--0--0--0-----0-----0--0--0--0--0-| x2

                                                                         
[Verse]
    Am                      G                       Em   
e|--0-----------0-----0--0--3-----3--3--3--3--3--|--0-----0--0--0--0--0-----0-----0--0--0--0--0-|
B|--1-----------1-----1--1--0-----0--0--0--0--0--|--0-----0--0--0--0--0-----0-----0--0--0--0--0-|
G|--2-----------2-----2--2--0-----0--0--0--0--0--|--0-----0--0--0--0--0-----0-----0--0--0--0--0-|
D|--2-----------2-----2--2--0-----0--0--0--0--0--|--2-----2--2--2--2--2-----2-----2--2--2--2--2-|
A|--0-----------0-----0--0--2-----2--2--2--2--2--|--2-----2--2--2--2--2-----2-----2--2--2--2--2-|
E|--------------------------3-----3--3--3--3--3--|--0-----0--0--0--0--0-----0-----0--0--0--0--0-| x3


    D                       G                       Em   
e|--2-----------2-----2--2--3-----3--3--3--3--3--|--0-----0--0--0--0--0-----0-----0--0--0--0--0-|
B|--3-----------3-----3--3--0-----0--0--0--0--0--|--0-----0--0--0--0--0-----0-----0--0--0--0--0-|
G|--2-----------2-----2--2--0-----0--0--0--0--0--|--0-----0--0--0--0--0-----0-----0--0--0--0--0-|
D|--0-----------0-----0--0--0-----0--0--0--0--0--|--2-----2--2--2--2--2-----2-----2--2--2--2--2-|
A|--------------------------2-----2--2--2--2--2--|--2-----2--2--2--2--2-----2-----2--2--2--2--2-|
E|--------------------------3-----3--3--3--3--3--|--0-----0--0--0--0--0-----0-----0--0--0--0--0-| x3


[Chorus]

   D       C       D       C
|--2----|--0----|--2----|--0----|
|--3----|--1----|--3----|--1----|
|--2----|--0----|--2----|--0----|
|--0----|--2----|--0----|--2----|
|-------|--3----|-------|--3----|
|-------|-------|-------|-------|

[Solo 2]

|---------------------------|---------------|   |----------|----------------|
|---------------------------|--------5--5---|   |----------|--------5--5----|
|---------------------------|---------------|   |----------|----------------|
|-2-----2-----2--0----------|---------------|   |----------|----------------|
|-------------------2--0----|---------------|   |--5-------|----------------|
|---------------------------|--0------------|x3 |-----3----|--0-------------|

[Solo 3]
|-------|-------|-------|-------|-------|-------|
|--5----|--8----|--10---|--12---|-------|-------|
|-------|-------|-------|-------|-------|-------|
|-------|-------|-------|-------|-------|-------|
|-------|-------|-------|-------|-------|-------|
|-------|-------|-------|-------|-------|-------|

[Harmonica]

E |--12b12b12b12b--|--12-10-12-15-12-10-12-15---|----|----|--12b12b12b12b--|
B |----------------|----------------------------|----|----|----------------|
G |----------------|----------------------------|----|----|----------------|
D |----------------|----------------------------|----|----|----------------|
A |----------------|----------------------------|----|----|----------------|
E |----------------|----------------------------|----|----|----------------|


--15-17-17b---17b---17b-----|--17b17b17b17b--|--19---|
----------------------------|----------------|-------|
----------------------------|----------------|-------|
----------------------------|----------------|-------|
----------------------------|----------------|-------|
----------------------------|----------------|-------|


-----------15----------15---|-----------15----------15---|----------------|
--17----17----17-15-17------|--17-15-17----17-15-17------|--17b17b17b17b--|
-----19---------------------|----------------------------|----------------|
----------------------------|----------------------------|----------------|
----------------------------|----------------------------|----------------|
----------------------------|----------------------------|----------------|


-----------15----------15---|----------------|--15-17-17b---17b---17b-----|
--17-15-17----17-15-17------|--17b17b17b17b--|----------------------------|
----------------------------|----------------|----------------------------|
----------------------------|----------------|----------------------------|
----------------------------|----------------|----------------------------|
----------------------------|----------------|----------------------------|


Suggest correction
Give kudos to tab author, rate the tab!
1 2 3 4 5
comments
print report bad tab
guest
You may want to rate the tab now too:
select rating
Wanna post a correction for this tab? Suggest correction