Oops, an error
Loading. Please wait.

Si Rien Ne Bouge Bass Tab

version 1
version 1

Whole song

Interactive

13 views 1 this week
no commentswrite comment
1 2 3 4 5
3 more votes to show rating
add to favorites
launch autoscroll
font size
0
reset
guitar tuner
Autoscroll
slow
fast
+/-
esc
set tempo
stop
Help us to improve Ultimate-Guitar.com Take our survey!
×
Author
newg [tm] 45,852
--------------------------------------------------------------------------------------------------------------
                                 Noir Désir  - Si Rien Ne Bouge 
--------------------------------------------------------------------------------------------------------------

Album : Du ciment sous les plaines (1991)
Tempo : 134
E-mail: gwendal.mollo@orange.fr
Tabbed by: newg    (http://profile.ultimate-guitar.com/newg/)

+ d'info avec mon fichier guitar pro

[Intro]

G|---------|---------|---------|---------|---------|---------|---------|---------|
D|---------|---------|---------|---------|---------|---------|---------|---------|
A|---------|---------|--3------|--3------|---------|---------|---------|---------|
E|--5------|--5------|---------|---------|--0------|--3------|--5------|--5------|
 


[Verse]

G|-----------------------------------------------|
D|-----------------------------------------------|
A|-----------------------------------------------|
E|--5--------5--5--5--5--------5--5--5--5-----5--| x2
 
G|-----------------------------------------------|
D|-----------------------------------------------|
A|--3--------3--3--3--3--------3--3--3--3-----3--|
E|-----------------------------------------------| x2

G|-----------------------------------------------|----------------------------------------------|
D|-----------------------------------------------|----------------------------------------------|
A|-----------------------------------------------|----------------------------------------------|
E|--0--------0--0--0--0--------0--0--0--0-----0--|-3--------3--3--3--3--------3--3--3--3-----3--|

G|-----------------------------------------------|
D|-----------------------------------------------|
A|-----------------------------------------------|
E|--5--------5--5--5--5--------5--5--5--5-----5--| x2




[Chorus]

G|-----------------------------------------------|-----------------------------------------------|
D|-----------------------------------------------|-----------------------------------------------|
A|-----------------------------------------------|-----------------------------------------------|
E|--5--------5--5--5--5--------5--5--5--5-----5--|--1--------1--1--1--1--------1--1--1--1-----1--|


G|----------------------------------------------|-----------------------------------------------|
D|----------------------------------------------|-----------------------------------------------|
A|----------------------------------------------|-----------------------------------------------|
E|-3--------3--3--3--3--------3--3--3--3-----3--|--5--------5--5--5--5--------5--5--5--5-----5--|
Suggest correction
Give kudos to tab author, rate the tab!
1 2 3 4 5
comments
print report bad tab
guest
You may want to rate the tab now too:
select rating
Wanna post a correction for this tab? Suggest correction