Oops, an error
Loading. Please wait.

Jak Malowany Ptak Tab

version 1
version 1

Solo

Whole song

Interactive

13 views 1 this week
no commentswrite comment
1 2 3 4 5
3 more votes to show rating
add to favorites
launch autoscroll
font size
0
reset
how to read this tab
guitar tuner
Autoscroll
slow
fast
+/-
esc
set tempo
stop
Help us to improve Ultimate-Guitar.com Take our survey!
×
Author
Difficulty
intermediate
Solo starts at 02:12

e|-------------------------------8-10br11-------------------------------|
B|-----------------------------8----------8~----------------------------|
G|-------------------------7-8---------------8-10-10br12-8-10br12p8-----|
D|----------------------10------------------------------------------10--|
A|-------------------10-------------------------------------------------|
E|-20\8~--8-10-10/11----------------------------------------------------|

e|------------------------------------------------------------------------|
B|------------------------------------------------------------------------|
G|------8 7h8p7-----------------------------------------------------------|
D|-8 10---------10-8-10--------------------------------8----8h10p8----10--|
A|----------------------10\8p6-8br10-8~--6---6~---8/10---10--------10-----|
E|-----------------------------------------8------------------------------|

e|--------------------------8-------------------8-------11-------------|
B|----------------8-------8---11b13~--8-------8---11b13----11pbr13-10~-|
G|---------7h8h10---10b12---------------10b12--------------------------|
D|----8h10-------------------------------------------------------------|
A|-10------------------------------------------------------------------|
E|---------------------------------------------------------------------|

e|---------------10b11-10-8------8---------11----13br15p11--------|
B|-10br11-9~---8------------11-8---11/13~-----13-----------13-13~-|
G|----------------------------------------------------------------|
D|----------------------------------------------------------------|
A|----------------------------------------------------------------|
E|----------------------------------------------------------------|

e|-------15b18--15br18-15p13----13-----------------------------------18--|
B|-13-13---------------------16----16br18-16-15h16p15-13-16-18-18b20-----|
G|-----------------------------------------------------------------------|
D|-----------------------------------------------------------------------|
A|-----------------------------------------------------------------------|
E|-----------------------------------------------------------------------|

e|---------------18--------18-------18---------------------------------|
B|-18b20~--18b20----18b20~----18b20----18br20-16-15-16-br18------------|
G|-----------------------------------------------------------17-15h17--|
D|---------------------------------------------------------------------|
A|---------------------------------------------------------------------|
E|---------------------------------------------------------------------|

e|--------------------------|
B|-16-------12h13p12--------|
G|----17~------------13-12--|
D|--------------------------|
A|--------------------------|
E|--------------------------|
  second guitar continues the solo
e|------------------10----10--------------------------------------------|
B|------------------13b15-13b15---12br13--------------------------------|
G|---------------------------------------12~--10-12-8-10-7-8-7----------|
D|-------------------------------------------------------------10-9-10--|
A|----------------------------------------------------------------------|
E|----------------------------------------------------------------------|

e|-----------|
B|-----------|
G|-7br8-\----|
D|-----------|
A|-----------|
E|-----------|

************************************

| h   Hammer-on
| p   Pull-off
| br  Bend release
| pbr Prebend release
| /   Slide up
| \   Slide down
| ~   Vibrato

************************************
Suggest correction
Give kudos to tab author, rate the tab!
1 2 3 4 5
comments
print report bad tab
guest
You may want to rate the tab now too:
select rating
Wanna post a correction for this tab? Suggest correction