Oops, an error
Loading. Please wait.

Pauhaava Sydän Chords

214 views 9 this week
no commentswrite comment
1 2 3 4 5
3 more votes to show rating
add to favorites
launch autoscroll
font size
0
reset
transpose
0
reset
display chords
guitar tuner
Autoscroll
slow
fast
+/-
esc
set tempo
stop
Help us to improve Ultimate-Guitar.com Take our survey!
×
Author
Difficulty
intermediate
[Intro]
  C#m                                E
e|-4--7-4-5-4---4-|-----9----------|-4--7-4-5-4---4-|--------9-------|
B|------------7---|----------------|------------7---|----------------|
G|----------------|----------------|----------------|----------------|
D|----------------|----------------|----------------|----------------|
A|----------------|----------------|----------------|----------------|
E|----------------|----------------|----------------|----------------|

  G#m                               F#m
e|-4--7-4-5-4---4-|-----7-4-5-4----|-0-0-0-0--0-0-0-|-0-0-0-0--0-0-0-|
B|------------7---|-------------7--|-2-2-2-2--2-2-2-|-4-4-4-4--4-4-4-|
G|----------------|----------------|----------------|----------------|
D|----------------|----------------|----------------|----------------|
A|----------------|----------------|----------------|----------------|
E|----------------|----------------|----------------|----------------|

[Verse 1]
   C#m
Ei rikkaus oo rakkautta rikkaampaa, rakkaus on rikkautta rakkaampaa
    E                                    G#m
Jos rakkaus on suoraa ja rikkaus väärää, kuka suoran säätää ja väärän määrää
   C#m
Ei tunne oo järkeä köyhempää, köyhä on järki ja tunne käypää
    E                                G#m
Jos tunne on suoraa ja järki väärää, kuka järjen säätää ja tunteen määrää

[Chorus]
           C#m                                    E
Mun täytyy rakastaa nää elämät roskiin, mun syrän pauhaa vaan ku kuohuva koski
          G#m                                 F#m
Se muille mitä tekee tahdo en kuulla, välistä rakkaus tahtoo elää ja kuolla
        A              F#m         E   B
Mut sun lähelläs mieli peilityyni on

[Solo]
  C#m                                E
e|-4--7-4-5-4---4-|-----9----------|-4--7-4-5-4---4-|--------9-------|
B|------------7---|----------------|------------7---|----------------|
G|----------------|----------------|----------------|----------------|
D|----------------|----------------|----------------|----------------|
A|----------------|----------------|----------------|----------------|
E|----------------|----------------|----------------|----------------|

  G#m                               F#m
e|-4--7-4-5-4---4-|-----7-4-5-4----|-0-0-0-0--0-0-0-|-0-0-0-0--0-0-0-|
B|------------7---|-------------7--|-2-2-2-2--2-2-2-|-4-4-4-4--4-4-4-|
G|----------------|----------------|----------------|----------------|
D|----------------|----------------|----------------|----------------|
A|----------------|----------------|----------------|----------------|
E|----------------|----------------|----------------|----------------|

[Verse 2]
   C#m
Ei kauneus oo rumuutta kauniimpaa, ruma on kaunis ja kaunis rumaa
    E                                G#m
Jos ruma on suoraa ja kaunis väärää, kuka kauniin säätää ja ruman määrää
   C#m
Ei valhe oo viisautta tyhmempää, onko totuus viisasta valhe kierää
    E                                 G#m
Jos valhe on suoraa ja totuus väärää, kuka valheet säätää ja totuuden määrää

[Chorus]
           C#m                                    E
Mun täytyy rakastaa nää elämät roskiin, mun syrän pauhaa vaan ku kuohuva koski
          G#m                                 F#m
Se muille mitä tekee tahdo en kuulla, välistä rakkaus tahtoo elää ja kuolla
           C#m                                    E
Mun täytyy rakastaa nää elämät roskiin, mun syrän pauhaa vaan ku kuohuva koski
          G#m                                 F#m
Se muille mitä tekee tahdo en kuulla, välistä rakkaus tahtoo elää ja kuolla
        A              F#m         E   B
Mut sun lähelläs mieli peilityyni on

[Solo]
  C#m                                E
e|-4--7-4-5-4---4-|-----7-4-5-4----|-4--7-4-5-4---4-|-----7-4-5-4----|
B|------------7---|-------------7--|------------7---|-------------7--|
G|----------------|----------------|----------------|----------------|
D|----------------|----------------|----------------|----------------|
A|----------------|----------------|----------------|----------------|
E|----------------|----------------|----------------|----------------|

  G#m                               F#m
e|-4--7-4-5-4---4-|-----7-4-5-4----|-0-0-0-0--0-0-0-|-0-0-0-0--0-0-0-|
B|------------7---|-------------7--|-2-2-2-2--2-2-2-|-4-4-4-4--4-4-4-|
G|----------------|----------------|----------------|----------------|
D|----------------|----------------|----------------|----------------|
A|----------------|----------------|----------------|----------------|
E|----------------|----------------|----------------|----------------|

[Chorus]
           C#m                                    E
Mun täytyy rakastaa nää elämät roskiin, mun syrän pauhaa vaan ku kuohuva koski
          G#m                                 F#m
Se muille mitä tekee tahdo en kuulla, välistä rakkaus tahtoo elää ja kuolla
           C#m                                    E
Mun täytyy rakastaa nää elämät roskiin, mun syrän pauhaa vaan ku kuohuva koski
          G#m                                 F#m
Se muille mitä tekee tahdo en kuulla, välistä rakkaus tahtoo elää ja kuolla
        A              F#m         E
Mut sun lähelläs mieli peilityyni on
B         A              F#m         E  
  Mut sun lähelläs mieli peilityyni on
B     A              F#m        E
  Sun lähelles mieli,   tyyni on
Suggest correction
Give kudos to tab author, rate the tab!
1 2 3 4 5
comments
print report bad tab
guest
You may want to rate the tab now too:
select rating
Wanna post a correction for this tab? Suggest correction