Oops, an error
Loading. Please wait.

Exercice De Déiliateur Tab

16 views 1 this week
no commentswrite comment
1 2 3 4 5
3 more votes to show rating
add to favorites
launch autoscroll
font size
0
reset
how to read this tab
guitar tuner
Autoscroll
slow
fast
+/-
esc
set tempo
stop
Help us to improve Ultimate-Guitar.com Take our survey!
×
Author
Difficulty
About this tab version
Speed basic exercise for beginner. Was this info helpful? Yes No
Piste 1
             S S S S S S S S S S S S S S S S  
e|-------|----------------------------------|
B|-------|----------------------------------|
G|-------|--------------------------1-2-3-4-|
D|-------|------------------1-2-3-4---------|
A|-------|----------1-2-3-4-----------------|
E|-------|--1-2-3-4-------------------------|


    S S S S S S S S S S S S S S S S    S S S S S S S S S S S S S S S S  
e|----------------------------------|----------------------------------|
B|--4-3-2-1-------------------------|----------------------------------|
G|----------4-3-2-1-----------------|--------4-------5-------6-------7-|
D|------------------4-3-2-1---------|------3-------4-------5-------6---|
A|--------------------------4-3-2-1-|----2-------3-------4-------5-----|
E|----------------------------------|--1-------2-------3-------4-------|


    S S S S S S S S S S S S S S S S   
e|----------------------------------||
B|----------------------------------||
G|--7-------6-------5-------4-------||
D|----6-------5-------4-------3-----||
A|------5-------4-------3-------2---||
E|--------4-------3-------2-------1-||
Suggest correction
Give kudos to tab author, rate the tab!
1 2 3 4 5
comments
print report bad tab
guest
You may want to rate the tab now too:
select rating
Wanna post a correction for this tab? Suggest correction