Oops, an error
Loading. Please wait.

ロックン・ロール・マーチ Bass Tab

10 views 1 this week
no commentswrite comment
1 2 3 4 5
3 more votes to show rating
add to favorites
launch autoscroll
font size
0
reset
guitar tuner
Autoscroll
slow
fast
+/-
esc
set tempo
stop
Help us to improve Ultimate-Guitar.com Take our survey!
×
Author
Difficulty
novice
Bass Start - 00:15


[Verse 1]

G|-----------|-----------|-----------|-----------|
D|-----------|-----2--5--|-----------|-----4--7--|
A|-----2--5--|--3--------|-----2--5--|--5--------|
E|--3--------|-----------|--3--------|-----------|


G|-----------|-----------|-----------------------|
D|-----------|-----2--5--|--0-2-4-5-0------------|
A|-----2--5--|--3--------|------------2-0-2-0----|
E|--3--------|-----------|--------------------3--|


[Verse 2]

G|-----------|-----------|-----------|-----------|
D|-----------|-----2--5--|-----------|-----4--7--|
A|-----2--5--|--3--------|-----2--5--|--5--------|
E|--3--------|-----------|--3--------|-----------|


G|-----------|-----------|-----------------------|
D|-----------|-----2--5--|--0-2-4-5-0------------|
A|-----2--5--|--3--------|------------2-0-2-0----|
E|--3--------|-----------|--------------------3--|


[Chorus]

G|--------------4--------------|----------|
D|--------5--7-----7--5--------|----------|
A|--5--7-----------------7--5--|-------5--|
E|-----------------------------|--5--7----|


G|-------------4---------------|-----7----|
D|--------5--7-----7--5--------|--7----5--|
A|--5--7----------------7---5--|----------|
E|-----------------------------|----------|


[Interlude]
  
  (Drum, Percussion.................................................)
G|----------------|----------------|----------------|----------------| (x2)
D|----------------|----------------|----------------|----------------|
A|----------------|----------------|----------------|----------------|
E|----------------|----------------|----------------|----------------|

  (Brass Section....................................................)
G|----------------|----------------|----------------|----------------|
D|----------------|----------------|----------------|----------------|
A|----------------|----------------|----------------|----------------|
E|----------------|----------------|----------------|----------------|


[Instrumental] (x2)

G|-----------|-----------|-----------|-----------|
D|-----------|-----2--5--|-----------|-----4--7--|
A|-----2--5--|--3--------|-----2--5--|--5--------|
E|--3--------|-----------|--3--------|-----------|


G|-----------|-----------|-----------------------|
D|-----------|-----2--5--|-----2-----4--5--------|
A|-----2--5--|--3--------|--3-----5--------5-----|
E|--3--------|-----------|--------------------3--|


[Chorus]

G|--------------4--------------|----------|
D|--------5--7-----7--5--------|----------|
A|--5--7-----------------7--5--|-------5--|
E|-----------------------------|--5--7----|


G|-------------4---------------|-----7----|
D|--------5--7-----7--5--------|--7----5--|
A|--5--7----------------7---5--|----------|
E|-----------------------------|----------|


[Outro] (x2)

G|------------------------|------------------------|
D|------------------------|------------------------|
A|------2---5------2---5--|------2---5------2---5--|
E|--3----------3----------|--3----------3----------|


G|------------------------|------------------------|
D|------2---5------2---5--|------------------------|
A|--3----------3----------|------2---5------2---5--|
E|------------------------|--3----------3----------|


G|------------------------|------------------------|
D|------4---7------4---7--|------------------------|
A|--5----------5----------|------2---5----------5--|
E|------------------------|--3----------3---2------|



***************************

in regular sequence!

***************************
Suggest correction
Give kudos to tab author, rate the tab!
1 2 3 4 5
comments
print report bad tab
guest
You may want to rate the tab now too:
select rating
Wanna post a correction for this tab? Suggest correction