Oops, an error
Loading. Please wait.

Huyendo De Tí Chords

version 1
version 1

Acoustic

Whole song

10 views 1 this week
no commentswrite comment
1 2 3 4 5
2 more votes to show rating
add to favorites
launch autoscroll
font size
0
reset
transpose
0
reset
display chords
guitar tuner
Autoscroll
slow
fast
+/-
esc
set tempo
stop
Help us to improve Ultimate-Guitar.com Take our survey!
×
Author
[Intro]
       Em        C      D       Bm
e ------------------------------------------------------
B ---------7--10--8-7-8~----5/7-5~-------7--7/10--5-----
G ------8------------------------------------------7~---
D -7/9--------------------------------------------------
A ------------------------------------------------------
E ------------------------------------------------------

       Em        C      D       Bm
e ------------------------------------------------------
B ---------7--10--8-7-8~----5/7-5~----------------------
G ------8----------------------------7h9-7~-------------
D -7/9--------------------------------------------------
A ------------------------------------------------------
E ------------------------------------------------------

[Verse]

Em    C   D        Bm           Em
Caminando, borro huellas de tu andar,
        C                D   Bm Em
de tus pasos en la oscuridad
Em     C      D      Bm          Em         C             D
En las calles, en el cine y en el bar, voy tratando de olvidarte


[Chorus]

Em              C          D               Bm
Aqui, lejos de ti, sigo evitando nuestro adios
Em               C                 D
Aqui, huyendo de ti, con desesperacion!

       Em        C      D       Bm
e ------------------------------------------------------
B ---------7--10--8-7-8~----5/7-5~-------7--7/10--5-----
G ------8------------------------------------------7~---
D -7/9--------------------------------------------------
A ------------------------------------------------------
E ------------------------------------------------------

       Em        C      D       Bm
e ------------------------------------------------------
B ---------7--10--8-7-8~----5/7-5~----------------------
G ------8----------------------------7h9-7~-------------
D -7/9--------------------------------------------------
A ------------------------------------------------------
E ------------------------------------------------------


[Verse]

Em     C    D      Bm         Em
Cruzo calles y no se donde parar,
         C          D   Bm  Em
es muy grande la ciudad
Em    C   D       Bm       Em         C          D
En el aire siento la necesidad, solo quiero escapar de ti


[Chorus]

Em              C            D             Bm
De ti, lejos de ti, sigo evitando nuestro adios
Em               C                 D
Aqui, huyendo de ti, con desesperacion!

       Em        C      D       Bm
e ------------------------------------------------------
B ---------7--10--8-7-8~----5/7-5~-----7--7/10--5-------
G ------8------------------------------------------7~---
D -7/9--------------------------------------------------
A ------------------------------------------------------
E ------------------------------------------------------

       Em        C      D       Bm
e ------------------------------------------------------
B ---------7--10--8-7-8~----5/7-5~----------------------
G ------8----------------------------7h9-7~-------------
D -7/9--------------------------------------------------
A ------------------------------------------------------
E ------------------------------------------------------


[Outro]

C      D         Bm             Em
Una ventana para ver la luz del dia...
C     D           Em
Una salida por favor!!
C         D           Bm           Em
Para olvidarte pronto, para seguir vivo
C          D
Sigo corriendo....


[End]

       Em        C      D       Bm
Estoy huyendo de ti, huyendo de ti!
       Em        C               D
Estoy huyendo de ti con desesperacion!!


       Em        C      D       Bm
Estoy huyendo de ti, huyendo de ti!
       Em        C               D
Estoy huyendo de ti con desesperacion!!

       Em        C      D       Bm
e ------------------------------------------------------
B ---------7--10--8-7-8~----5/7-5~-----7--7/10--5-------
G ------8------------------------------------------7~---
D -7/9--------------------------------------------------
A ------------------------------------------------------
E ------------------------------------------------------

       Em        C      D       Bm
e ------------------------------------------------------
B ---------7--10--8-7-8~----5/7-5~----------------------
G ------8----------------------------7h9-7~-------------
D -7/9--------------------------------------------------
A ------------------------------------------------------
E ------------------------------------------------------


Cualquier duda o correccion, pueden escribirme a mi correo fedeva96@gmail.com
Puntua y gracias ;)
Suggest correction
Give kudos to tab author, rate the tab!
1 2 3 4 5
comments
print report bad tab
guest
You may want to rate the tab now too:
select rating
Wanna post a correction for this tab? Suggest correction