Oops, an error
Loading. Please wait.

Iván Gp - Tony Tab

1 view 1 this week
no commentswrite comment
1 2 3 4 5
3 more votes to show rating
add to favorites
launch autoscroll
font size
0
reset
how to read this tab
guitar tuner
Autoscroll
slow
fast
+/-
esc
set tempo
stop
Help us to improve Ultimate-Guitar.com Take our survey!
×
Author
[Intro]
e|---------------------------------------------------------------------------|
B|---------------------------------------------------------------------------|
G|---------------------------------------------------------------------------|
D|-------------------------2-2-4-2-2-2-4-2-2-2-4-2-5-2-0---------------------|
A|-2-2-2-2-2-2-2-2-2-2-2-2-0-0-0-0-0-0-0-0-0-0-0-0-0-0-0---------------------| 
E|-0-0-3-0-5-3-0-0-3-0-5-3---------------------------------------------------|

e|---------------------------------------------------------------------------|
B|---------------------------------------------------------------------------|
G|---------------------------------------------------------------------------|
D|-----2------5------4------4------2------5-----4--4-----6-------------------|
A|-3-3-3--7-7-7--5-5-5--5-5-5--3-3-3--7-7-7-5-5-5--5(x7)-5(x8)---------------|
E|---------------------------------------------------------------------------|
  
[Chorus]
e|---------2-2-----------------------------------------------------------------|
B|---------2----------------------2-2-2-2-2-2-2-2-5-5-5-5-7-8------------------|
G|---------0----------------------2-2-2-2-2-2-2-2-5-5-5-5-7-8------------------|
D|---------0----------------(x3)-----------------------------------------------|
A|-2-2-2-2-2---2-2-2-2-7-5-----------------------------------------------------|
E|-0-0-3-0-3---0-0-3-0-5-3-----------------------------------------------------|

e|---------2-2-----------------------------------------------------------------|
B|---------2----------------------2-2-2-2-2-2-2-2-5-5-5-5-0--------------------|
G|---------0----------------------2-2-2-2-2-2-2-2-5-5-5-5-0--------------------|
D|---------0----------------(x3)-----------------------------------------------|
A|-2-2-2-2-2---2-2-2-2-7-5-----------------------------------------------------|
E|-0-0-3-0-3---0-0-3-0-5-3-----------------------------------------------------|

e|---------------------------------------------------------------------------|
B|---------------------------------------------------------------------------|
G|---------------------------------------6-6-6-6-5-5-2-2---------------------|
D|------------------2-2-2-2-5-2-7/8------x-x-x-x-x-x-x-x---------------------|
A|------------------0-0-0-0-3-0-5/6-(x3)-6-6-6-6-5-5-2-2---------------------|
E|-0-3-5-6-(x6)-/12-0-0-0-0-3-0-5/6------------------------------------------|


************************************

| x   Dead note
| g   Grace note
| (n) Ghost note
| h   Hammer-on
| p   Pull-off
| r   Release
| >   Accented note
| t   Tapping
| b   Bend
| br  Bend release
| pb  Pre-bend
| pbr Pre-bend release
| /   Slide up
| \   Slide down
| ~   Vibrato
| s   Slap
| P   Pop
| PM  Palm mute
| TR  Trill
| N   Tremolo

************************************
Suggest correction
Give kudos to tab author, rate the tab!
1 2 3 4 5
comments
print report bad tab
guest
You may want to rate the tab now too:
select rating
Wanna post a correction for this tab? Suggest correction