Oops, an error
Loading. Please wait.

Pins Tab

94 views 18 this week
no commentswrite comment
1 2 3 4 5
3 more votes to show rating
add to favorites
launch autoscroll
font size
0
reset
how to read this tab
guitar tuner
Autoscroll
slow
fast
+/-
esc
set tempo
stop
Help us to improve Ultimate-Guitar.com Take our survey!
×
Author
Difficulty
novice
[Intro]

e|--------------------------------------------------------------------------------|
B|------0-----0------0-----0-----0-----0-----0-----0------------------------------|
G|----0-----0------0-----0-----0-----0-----0-----0--------------------------------|
D|--------------------------------------------------------------------------------|
A|--2-----2-----/5-----5-----4-----4-----3-----3----------------------------------|
E|--------------------------------------------------------------------------------|

[Verse]

e|---------------------------------------------------------------------|
B|------0-----0------0-----0-----0-----0-----0-----0-------------------|
G|----0-----0------0-----0-----0-----0-----0-----0---------------------|
D|---------------------------------------------------------------------|
A|--2-----2-----/5-----5-----4-----4-----3-----3-------repeat 3 times--|
E|---------------------------------------------------------------------|

e|----------------------------------------------------------------------------------|
B|------0-----0------0-----0-----0-----0-----0-----0-----0-----0--------------------|
G|----0-----0------0-----0-----0-----0-----0-----0-----0-----0----------------------|
D|----------------------------------------------------------------------------------|
A|--2-----2-----/5-----5-----4-----4-----0-----0-----0-----0------------------------|
E|----------------------------------------------------------------------------------|

[im not really sure where the verse ends and chorus begins and what all the stuff in between is called so if
you want to label that then go for it and have fun]

e|-------------------------------------------------------------------------|
B|------0-----0-----0-----0-----0-----0-----0-----0----0-----0----0-----0--|
G|----0-----0-----0-----0-----0-----0-----0-----0----0-----0----0-----0----|
D|-------------------------------------------------------------------------|
A|--7-----7-----6-----6-----5-----5-----4-----4----0-----0----0-----0------|
E|-------------------------------------------------------------------------|

e|--------------------------------------------------------------------|
B|------0-----0-----0-----0-----0-----0-----0----0--------------------|
G|----0-----0-----0-----0-----0-----0-----0----0----------------------|
D|--2-----2-----4-----4-----9-----9-----7----7--------repeat 3 times--|
A|--------------------------------------------------------------------|
E|--------------------------------------------------------------------|

e|----------------------------------------------------------------|
B|------0-----0-----0-----0-----0-----0-----0----0------0------0--|
G|----0-----0-----0-----0-----0-----0-----0----0------0------0----|
D|--2-----2-----4-----4-----9-----9-----9----9-----10-----10------|
A|----------------------------------------------------------------|
E|----------------------------------------------------------------|

e|-------------------------------------------------|
B|------0-----0-----0-----0----0----0-----0-----0--|
G|----0-----0-----0-----0----0----0-----0-----0----|
D|-------------------------------------------------| i think she did each of those 3 times? im not sure it was
A|--2-----2-----9-----9----9----7-----7-----7------|         hard to tell
E|-------------------------------------------------|


then repeat all that except the intro. then for the bit at the end in Zannah's own words: "you just kinda
slide around cause it's fun"



************************************

| /  Slide up

************************************
Suggest correction
Give kudos to tab author, rate the tab!
1 2 3 4 5
comments
print report bad tab
guest
You may want to rate the tab now too:
select rating
Wanna post a correction for this tab? Suggest correction