Oops, an error
Loading. Please wait.

Само Теб Tab

13 views 6 this week
no commentswrite comment
1 2 3 4 5
3 more votes to show rating
add to favorites
launch autoscroll
font size
0
reset
how to read this tab
guitar tuner
Autoscroll
slow
fast
+/-
esc
set tempo
stop
Help us to improve Ultimate-Guitar.com Take our survey!
×
Author
Difficulty
novice
About this tab version
This specific tab is based off the studio recorded version written by Ivan Tishev. Here is a link to the song on YouTube: https://www.youtube.com/watch?v=TvzRN3BVHrc. Was this info helpful? Yes No
[EN]
Here is my tab for the guitar playing in the background in all parts of the song, except
the EDM parts. I was wondering how to play it and tried searching for it everywhere, but
didn't find it anywhere. So after a couple of minutes, I think that this is exactly how 
it's played. I have written above the tabs which fingers I use to pluck the strings. 
Remember to hold all fingers on the three frets you are fretting in every part so that
you minimize the movements you make when going to the next part, and for making it a lot
easier.
Oh,and in the fourth part, where it goes:

E|--------------------|
B|-----10-----10------|
G|--------------------|
D|--12----12-----12---|
A|9-------------------|
E|--------------------|

you should just slide the same form you have made with your fingers down to the first
position, just moving
your ring finger to the 9th fret instead of the 10th.


Fingerpicking: 1 - Thumb 2 - Index finger 3 - Middle finger 4 - Ring finger

(NOT TO BE CONFUSED WITH WHICH FINGERS WHICH YOU SHOULD FRET WITH, YOU FRET HOW YOU 
FEEL MOST COMFORTABLE ☺!)

[BG]
Ето я моята таблатура за китарата, която свири през цялата песен, освен EDM частите.
Търсех за табове навсякъдено не успях да намеря никаква таблатура. Но след няколко
минути на дрънкане с китарата, мисля че песента се свири точно така. Над
таблатурата  съм написал с кои пръсти аз дърпам струните. Запомнете да си държите
пръстите на трите фрет-а, на които се свири, за минимално движение и максимална
лекота. А, и във четвъртата част, където се свири:

E|--------------------|
B|-----10-----10------|
G|--------------------|
D|--12----12-----12---|
A|9-------------------|
E|--------------------|

трябва просто да плъзнете пръстите си надолу по
грифа във съшата форма, само премествайки
безименният ви пръст към деветия фрет, намѐсто десетия.

Фингърпикване: 1 - Палец 2 - Показалец 3 - Среден пръст
4 - Безимен пръст

(ДА НЕ СЕ ОБЪРКАТЕ И ДА СИ МИСЛИТЕ, ЧЕ ТОВА СА
ПРЪСТИТЕ, КОИТО СЕ СЛАГАТ НА ГРИФА, КОИ ПРЪСТ 
КЪДЕ НАТИСКАТЕ ВЪРХУ ГРИФА ЗАВИСИ ОТ ВАС И КАК ВИ Е НАЙ-УДОБНО ☺!)

[Intro/Verse]
    1 2 4 1 2 4 2    1 2 4 1 2 4  1  2  4  2   4  2    1 2  4  2   2  2
E|-------------------------------------------------------------------------|
B|------8-----8----------8-----8--------12-----12-----------10-----10------|
G|-------------------------------------------------------------------------|
D|----9-----9---9------9-----9-------12----12-----12-----12----12-----12---|
A|--7-----7----------------------/10-------------------9-------------------|
E|-------------------8-----8-----------------------------------------------|

[Pre-chorus]

    1 All the way
E|--------------------------------------------------------|
B|--------------------------------------------------------|
G|--------------------------------------------------------|
D|--------------------------------------------------------|
A|--10-9-7-7-7---10-9-7-7-7---10-9----------10-9----------|
E|---------------------------------10-10-10------10-10-10-|

E|----------------------------------------------------|
B|----------------------------------------------------|
G|----------------------------------------------------|
D|----------------------------------------------------|
A|--10-9-7-7-7---10-9-7-7-7---10-9------------10-9----|
E|---------------------------------10-10-10--------10-|

I hope you liked it, rate and comment if you want to :)

Надявам се да ви е харесало, рейтвайте илинапишете коментар ако имете желание :)



************************************

| /  Slide up

************************************
Suggest correction
Give kudos to tab author, rate the tab!
1 2 3 4 5
comments
print report bad tab
guest
You may want to rate the tab now too:
select rating
Wanna post a correction for this tab? Suggest correction