Oops, an error
Loading. Please wait.

Irgendwas Für Nichts Tab

151 views 12 this week
no commentswrite comment
1 2 3 4 5
3 more votes to show rating
add to favorites
launch autoscroll
font size
0
reset
how to read this tab
guitar tuner
Autoscroll
slow
fast
+/-
esc
set tempo
stop
Help us to improve Ultimate-Guitar.com Take our survey!
×
Author
Difficulty
Tuning
intermediate
D G C F A D
[Intro]

D|-------------------------------------------------|-------------------------------------------------|
A|-------------------------------------------------|-------------------------------------------------|
F|-------------------------------------------------|-------------------------------------------------|
C|-------------------------------------------------|-------------------------------------------------|
G|-------3-----5-h6-p5-p3--5-p3--------3-----------|-------3-----5-h6-p5-p3--5-p3--------3-----------|
D|-5-----------------------------5-p3-----5-p3--5--|----5--------------------------5-p3-----5-p3--5--|



D|-------------------------------------------------|-------------------------------------------------|
A|-------------------------------------------------|-------------------------------------------------|
F|-------------------------------------------------|-------------------------------------------------|
C|-------------------------------------------------|-------------------------------------------------|
G|-------3-----5-h6-p5-p3--5-p3--------3-----------|-------3-----5-h6-p5-p3--5-p3-------3------------|
D|----5--------------------------5-p3-----5-p3--5--|----5--------------------------5-p3----5--p3-----|


[Verse]

D|-------------------------------------------------|-------------------------------------------------|
A|-------------------------------------------------|-------------------------------------------------|
F|-------------------------------------------------|-------------------------------------------------|
C|-------------------------------------------------|-------------------------------------------------|
G|-------------------3-----------------------------|-------------------3-----------------------------|
D|-5--5--5--5--5--5--------------------------------|-5--5--5--5--5--5--------------------------------|



D|-------------------------------------------------|-------------------------------------------------|
A|-------------------------------------------------|-------------------------------------------------|
F|-------------------------------------------------|-------------------------------------------------|
C|-------------------------------------------------|-------------------------------------------------|
G|-------------------3-----------------------------|-------------------3-----------------------------|
D|-5--5--5--5--5--5--------------------------------|-5--5--5--5--5--5--------------------------------|



D|-------------------------------------------------|-------------------------------------------------|
A|-------------------------------------------------|-------------------------------------------------|
F|-------------------------------------------------|-------------------------------------------------|
C|-------------------------------------------------|-------------------------------------------------|
G|-------------------3-----------3-----------3-----|-------------------3-----------3-----------3-----|
D|-5--5--5--5--5--5--------5--5--------5--5--------|-5--5--5--5--5--5--------5--5--------5--5--------|



D|-------------------------------------------------|-------------------------------------------------|
A|-------------------------------------------------|-------------------------------------------------|
F|-------------------------------------------------|-------------------5-----------5-----------5-----|
C|-------------------5-----------5-----------5-----|-7--7--7--7--7--7--------7--7--------7--7--------|
G|-7--7--7--7--7--7--------7--7--------7--7--------|-------------------------------------------------|
D|-------------------------------------------------|-------------------------------------------------|


[Pre-Chorus] (2 Guitars)

D|-------------------------------------------------|-------------------------------------------------|
A|10-10-10-10-10-10-10-10-10-10-10-10-10-10-10-10--|12-12-12-12-12-12-12-12-12-12-12-12-12-12-12-12--|
F|-x--x--x--x--x--x--x--x--x--x--x--x--x--x--x--x--|-x--x--x--x--x--x--x--x--x--x--x--x--x--x--x--x--|
C|-7--7--7--7--7--7--7--7--7--7--7--7--7--7--7--7--|-9--9--9--9--9--9--9--9--9--9--9--9--9--9--9--9--|
G|-------------------------------------------------|-------------------------------------------------|
D|-------------------------------------------------|-------------------------------------------------|
 |
 |P.M.-|      P.M.-|      P.M.-|      P.M.-|        P.M.-|      P.M.-|      P.M.-|      P.M.-|
D|-------------------------------------------------|-------------------------------------------------|
A|-------------------------------------------------|-------------------------------------------------|
F|-------------------------------------------------|-------------------------------------------------|
C|-------------------------------------------------|-------------------------------------------------|
G|-------7-----------7-----------7-----------7-----|-------5-----------5-----------5-----------5-----|
D|-5--5--5-----5--5--5-----5--5--5-----5--5--5-----|-3--3--3-----3--3--3-----3--3--3-----3--3--3-----|



D|-------------------------------------------------|-------------------------------------------------|
A|13-13-13-13-13-13-13-13-13-13-13-13-13-13-13-13--|15-15-15-15-15-15-15-15-15-15-15-15-15-15-15-15--|
F|-x--x--x--x--x--x--x--x--x--x--x--x--x--x--x--x--|-x--x--x--x--x--x--x--x--x--x--x--x--x--x--x--x--|
C|10-10-10-10-10-10-10-10-10-10-10-10-10-10-10-10--|12-12-12-12-12-12-12-12-12-12-12-12-12-12-12-12--|
G|-------------------------------------------------|-------------------------------------------------|
D|-------------------------------------------------|-------------------------------------------------|
 |
 |P.M.-|      P.M.-|      P.M.-|      P.M.-|        P.M.-|      P.M.-|      P.M.-|      P.M.-|
D|-------------------------------------------------|-------------------------------------------------|
A|-------------------------------------------------|-------------------------------------------------|
F|-------------------------------------------------|-------------------------------------------------|
C|-------------------------------------------------|-------------------------------------------------|
G|-------4-----------4-----------4-----------4-----|-------3-----------3-----------3-----------3-----|
D|-2--2--2-----2--2--2-----2--2--2-----2--2--2-----|-1--1--1-----1--1--1-----1--1--1-----1--1--1-----|


                                                          P.M.-------------------------------------|
D|-------------------------------------------------|-------------------------------------------------|
A|-------------------------------------------------|-------------------------------------------------|
F|-------------------------------------------------|-------------------------------------------------|
C|-2-----2-----5-----5-----7-----7-----2-----------|-2-----------------------------------------------|
G|-0-----0-----3-----3-----5-----5-----0-----------|-0-----0--0--0--0--0--0--0--0--0--0--0--0--0--0--|
D|----------------------------------------3--------|-------------------------------------------------|


                                                          P.M.-------------------------------------|
D|-------------------------------------------------|-------------------------------------------------|
A|-------------------------------------------------|-------------------------------------------------|
F|-------------------------------------------------|-------------------------------------------------|
C|-------------5-----5-----------------5-----------|-2-----------------------------------------------|
G|-2-----2-----3-----3-----5-----5-----3-----------|-0-----0--0--0--0--0--0--0--0--0--0--0--0--0--0--|
D|-0-----0-----------------3-----3--------3--------|-------------------------------------------------|


[Chorus]

D|-------------------------------------------------|-------------------------------------------------|
A|-------------------------------------------------|-------------------------------------------------|
F|-------------------------------------------------|-------------------------------------------------|
C|-2--------2--------------2--------2--------------|-2-----------------2-----5--------2--------------|
G|-0--------0--------------0--------0--------------|-0-----------------0-----3--------0--------------|
D|-------------------3-----------------------3-----|----------3--------------------------------3-----|



D|-------------------------------------------------|-------------------------------------------------|
A|-------------------------------------------------|-------------------------------------------------|
F|-------------------------------------------------|-------------------------------------------------|
C|-------------------------------------------------|-5--------5--------5-----------------------------|
G|-3--------3--------3-----3--------3--------3-----|-3--------3--------3-----5--------5--------5-----|
D|-1--------1--------1-----1--------1--------1-----|-------------------------3--------3--------3-----|



D|-------------------------------------------------|-------------------------------------------------|
A|-------------------------------------------------|-------------------------------------------------|
F|-------------------------------------------------|-------------------------------------------------|
C|-2--------2--------------2--------2--------------|-2-----------------2-----5--------2--------------|
G|-0--------0--------------0--------0--------------|-0-----------------0-----3--------0--------------|
D|-------------------3-----------------------3-----|----------3--------------------------------3-----|



D|-------------------------------------------------|-------------------------------------------------|
A|-------------------------------------------------|-------------------------------------------------|
F|-------------------------------------------------|-------------------------------------------------|
C|-------------------------------------------------|-5--------5--------5-----------------------------|
G|-3--------3--------3-----3--------3--------3-----|-3--------3--------3-----5-----x--x--x--x--x--x--|
D|-1--------1--------1-----1--------1--------1-----|-------------------------3-----x--x--x--x--x--x--|


[Interlude]

D|-------------------------------------------------|-------------------------------------------------|
A|-------------------------------------------------|-------------------------------------------------|
F|-------------------------------------------------|-------------------------------------------------|
C|-------------------------------------------------|-------------------------------------------------|
G|-------3-----5-h6-p5-p3--5-p3--------3-----------|-------3-----5-h6-p5-p3--5-p3--------3-----------|
D|-5-----------------------------5-p3-----5-p3--5--|----5--------------------------5-p3-----5-p3--5--|



D|-------------------------------------------------|-------------------------------------------------|
A|-------------------------------------------------|-------------------------------------------------|
F|-------------------------------------------------|-------------------------------------------------|
C|-------------------------------------------------|-------------------------------------------------|
G|-------3-----5-h6-p5-p3--5-p3--------3-----------|-------3-----5-h6-p5-p3--5-p3-------3------------|
D|----5--------------------------5-p3-----5-p3--5--|----5--------------------------5-p3----5--p3-----|


[Verse]

D|-------------------------------------------------|-------------------------------------------------|
A|-------------------------------------------------|-------------------------------------------------|
F|-------------------------------------------------|-------------------------------------------------|
C|-------------------------------------------------|-------------------------------------------------|
G|-------------------3-----------------------------|-------------------3-----------------------------|
D|-5--5--5--5--5--5--------------------------------|-5--5--5--5--5--5--------------------------------|



D|-------------------------------------------------|-------------------------------------------------|
A|-------------------------------------------------|-------------------------------------------------|
F|-------------------------------------------------|-------------------------------------------------|
C|-------------------------------------------------|-------------------------------------------------|
G|-------------------3-----------------------------|-------------------3-----------------------------|
D|-5--5--5--5--5--5--------------------------------|-5--5--5--5--5--5--------------------------------|


D|-------------------------------------------------|-------------------------------------------------|
A|-------------------------------------------------|-------------------------------------------------|
F|-------------------------------------------------|-------------------------------------------------|
C|-------------------------------------------------|-------------------------------------------------|
G|-------------------3-----------3-----------3-----|-------------------3-----------3-----------3-----|
D|-5--5--5--5--5--5--------5--5--------5--5--------|-5--5--5--5--5--5--------5--5--------5--5--------|



D|-------------------------------------------------|-------------------------------------------------|
A|-------------------------------------------------|-------------------------------------------------|
F|-------------------------------------------------|-------------------5-----------5-----------5-----|
C|-------------------5-----------5-----------5-----|-7--7--7--7--7--7--------7--7--------7--7--------|
G|-7--7--7--7--7--7--------7--7--------7--7--------|-------------------------------------------------|
D|-------------------------------------------------|-------------------------------------------------|


[Pre-Chorus] (2 Guitars)

D|-------------------------------------------------|-------------------------------------------------|
A|10-10-10-10-10-10-10-10-10-10-10-10-10-10-10-10--|12-12-12-12-12-12-12-12-12-12-12-12-12-12-12-12--|
F|-x--x--x--x--x--x--x--x--x--x--x--x--x--x--x--x--|-x--x--x--x--x--x--x--x--x--x--x--x--x--x--x--x--|
C|-7--7--7--7--7--7--7--7--7--7--7--7--7--7--7--7--|-9--9--9--9--9--9--9--9--9--9--9--9--9--9--9--9--|
G|-------------------------------------------------|-------------------------------------------------|
D|-------------------------------------------------|-------------------------------------------------|
 |
 |P.M.-|      P.M.-|      P.M.-|      P.M.-|        P.M.-|      P.M.-|      P.M.-|      P.M.-|
D|-------------------------------------------------|-------------------------------------------------|
A|-------------------------------------------------|-------------------------------------------------|
F|-------------------------------------------------|-------------------------------------------------|
C|-------------------------------------------------|-------------------------------------------------|
G|-------7-----------7-----------7-----------7-----|-------5-----------5-----------5-----------5-----|
D|-5--5--5-----5--5--5-----5--5--5-----5--5--5-----|-3--3--3-----3--3--3-----3--3--3-----3--3--3-----|



D|-------------------------------------------------|-------------------------------------------------|
A|13-13-13-13-13-13-13-13-13-13-13-13-13-13-13-13--|15-15-15-15-15-15-15-15-15-15-15-15-15-15-15-15--|
F|-x--x--x--x--x--x--x--x--x--x--x--x--x--x--x--x--|-x--x--x--x--x--x--x--x--x--x--x--x--x--x--x--x--|
C|10-10-10-10-10-10-10-10-10-10-10-10-10-10-10-10--|12-12-12-12-12-12-12-12-12-12-12-12-12-12-12-12--|
G|-------------------------------------------------|-------------------------------------------------|
D|-------------------------------------------------|-------------------------------------------------|
 |
 |P.M.-|      P.M.-|      P.M.-|      P.M.-|        P.M.-|      P.M.-|      P.M.-|      P.M.-|
D|-------------------------------------------------|-------------------------------------------------|
A|-------------------------------------------------|-------------------------------------------------|
F|-------------------------------------------------|-------------------------------------------------|
C|-------------------------------------------------|-------------------------------------------------|
G|-------4-----------4-----------4-----------4-----|-------3-----------3-----------3-----------3-----|
D|-2--2--2-----2--2--2-----2--2--2-----2--2--2-----|-1--1--1-----1--1--1-----1--1--1-----1--1--1-----|


                                                          P.M.-------------------------------------|
D|-------------------------------------------------|-------------------------------------------------|
A|-------------------------------------------------|-------------------------------------------------|
F|-------------------------------------------------|-------------------------------------------------|
C|-2-----2-----5-----5-----7-----7-----2-----------|-2-----------------------------------------------|
G|-0-----0-----3-----3-----5-----5-----0-----------|-0-----0--0--0--0--0--0--0--0--0--0--0--0--0--0--|
D|----------------------------------------3--------|-------------------------------------------------|


                                                          P.M.-------------------------------------|
D|-------------------------------------------------|-------------------------------------------------|
A|-------------------------------------------------|-------------------------------------------------|
F|-------------------------------------------------|-------------------------------------------------|
C|-------------5-----5-----------------5-----------|-2-----------------------------------------------|
G|-2-----2-----3-----3-----5-----5-----3-----------|-0-----0--0--0--0--0--0--0--0--0--0--0--0--0--0--|
D|-0-----0-----------------3-----3--------3--------|-------------------------------------------------|


[Chorus]

D|-------------------------------------------------|-------------------------------------------------|
A|-------------------------------------------------|-------------------------------------------------|
F|-------------------------------------------------|-------------------------------------------------|
C|-2--------2--------------2--------2--------------|-2-----------------2-----5--------2--------------|
G|-0--------0--------------0--------0--------------|-0-----------------0-----3--------0--------------|
D|-------------------3-----------------------3-----|----------3--------------------------------3-----|



D|-------------------------------------------------|-------------------------------------------------|
A|-------------------------------------------------|-------------------------------------------------|
F|-------------------------------------------------|-------------------------------------------------|
C|-------------------------------------------------|-5--------5--------5-----------------------------|
G|-3--------3--------3-----3--------3--------3-----|-3--------3--------3-----5--------5--------5-----|
D|-1--------1--------1-----1--------1--------1-----|-------------------------3--------3--------3-----|



D|-------------------------------------------------|-------------------------------------------------|
A|-------------------------------------------------|-------------------------------------------------|
F|-------------------------------------------------|-------------------------------------------------|
C|-2--------2--------------2--------2--------------|-2-----------------2-----5--------2--------------|
G|-0--------0--------------0--------0--------------|-0-----------------0-----3--------0--------------|
D|-------------------3-----------------------3-----|----------3--------------------------------3-----|



D|-------------------------------------------------|-------------------------------------------------|
A|-------------------------------------------------|-------------------------------------------------|
F|-------------------------------------------------|-------------------------------------------------|
C|-------------------------------------------------|-5--------5--------5-----------------------------|
G|-3--------3--------3-----3--------3--------3-----|-3--------3--------3-----5-----x--x--x--x--x--x--|
D|-1--------1--------1-----1--------1--------1-----|-------------------------3-----x--x--x--x--x--x--|


[Break]
D|-------------------------------------------------|-------------------------------------------------|
A|-------------------------------------------------|-------------------------------------------------|
F|-------------------------------------------------|-------------------------------------------------|
C|-2-----.--2--------------2-----.--2--------------|-2-----------------2-----5--------2--------------|
G|-0-----.--0--------------0-----.--0--------------|-0-----------------0-----3--------0--------------|
D|-------------------3-----------------------3-----|----------3--------------------------------3-----|


[Solo]
(eigentliches Solo folgt noch, einfach in A-Moll improvisieren)

         P.M.------------------------------------|         P.M.------------------------------------|
D|-------------------------------------------------|-------------------------------------------------|
A|-------------------------------------------------|-------------------------------------------------|
F|-------------------------------------------------|-------------------------------------------------|
C|-2-----------------------------------------------|-------------------------------------------------|
G|-0-----0--0--0--0--0--0--0--0--0--0--0--0--0--0--|-5-----------------------------------------------|
D|-------------------------------------------------|-3-----3--3--3--3--3--3--3--3--3--3--3--3--3--3--|


         P.M.------------------------------------|         P.M.------------------------------------|
D|-------------------------------------------------|-------------------------------------------------|
A|-------------------------------------------------|-------------------------------------------------|
F|-------------------------------------------------|-------------------------------------------------|
C|-------------------------------------------------|-------------------------------------------------|
G|-4-----------------------------------------------|-3-----------------------------------------------|
D|-2-----2--2--2--2--2--2--2--2--2--2--2--2--2--2--|-1-----1--1--1--1--1--1--1--1--1--1--1--1--1--1--|


         P.M.------------------------------------|         P.M.------------------------------------|
D|-------------------------------------------------|-------------------------------------------------|
A|-------------------------------------------------|-------------------------------------------------|
F|-------------------------------------------------|-------------------------------------------------|
C|-2-----------------------------------------------|-------------------------------------------------|
G|-0-----0--0--0--0--0--0--0--0--0--0--0--0--0--0--|-5-----------------------------------------------|
D|-------------------------------------------------|-3-----3--3--3--3--3--3--3--3--3--3--3--3--3--3--|

         P.M.------------------------------------|         P.M.------------------------------------|
D|-------------------------------------------------|-------------------------------------------------|
A|-------------------------------------------------|-------------------------------------------------|
F|-------------------------------------------------|-------------------------------------------------|
C|-------------------------------------------------|-------------------------------------------------|
G|-4-----------------------------------------------|-3-----------------------------------------------|
D|-2-----2--2--2--2--2--2--2--2--2--2--2--2--2--2--|-1-----1--1--1--1--1--1--1--1--1--1--1--1--1--1--|



[Chorus]


D|-------------------------------------------------|-------------------------------------------------|
A|-------------------------------------------------|-------------------------------------------------|
F|-------------------------------------------------|-------------------------------------------------|
C|-2--------2--------------2--------2--------------|-2-----------------2-----5--------2--------------|
G|-0--------0--------------0--------0--------------|-0-----------------0-----3--------0--------------|
D|-------------------3-----------------------3-----|----------3--------------------------------3-----|



D|-------------------------------------------------|-------------------------------------------------|
A|-------------------------------------------------|-------------------------------------------------|
F|-------------------------------------------------|-------------------------------------------------|
C|-------------------------------------------------|-5--------5--------5-----------------------------|
G|-3--------3--------3-----3--------3--------3-----|-3--------3--------3-----5--------5--------5-----|
D|-1--------1--------1-----1--------1--------1-----|-------------------------3--------3--------3-----|



D|-------------------------------------------------|-------------------------------------------------|
A|-------------------------------------------------|-------------------------------------------------|
F|-------------------------------------------------|-------------------------------------------------|
C|-2--------2--------------2--------2--------------|-2-----------------2-----5--------2--------------|
G|-0--------0--------------0--------0--------------|-0-----------------0-----3--------0--------------|
D|-------------------3-----------------------3-----|----------3--------------------------------3-----|



D|-------------------------------------------------|-------------------------------------------------|
A|-------------------------------------------------|-------------------------------------------------|
F|-------------------------------------------------|-------------------------------------------------|
C|-------------------------------------------------|-5--------5--------5-----------------------------|
G|-3--------3--------3-----3--------3--------3-----|-3--------3--------3-----3--------5--------5-----|
D|-1--------1--------1-----1--------1--------1-----|-------------------------3--------3--------3-----|



D|-------------------------------------------------|-------------------------------------------------|
A|-------------------------------------------------|-------------------------------------------------|
F|-------------------------------------------------|-------------------------------------------------|
C|-2--------2--------------2--------2--------------|-2-----------------2-----5--------2--------------|
G|-0--------0--------------0--------0--------------|-0-----------------0-----3--------0--------------|
D|-------------------3-----------------------3-----|----------3--------------------------------3-----|



D|-------------------------------------------------|-------------------------------------------------|
A|-------------------------------------------------|-------------------------------------------------|
F|-------------------------------------------------|-------------------------------------------------|
C|-------------------------------------------------|-5--------5--------5-----------------------------|
G|-3--------3--------3-----3--------3--------3-----|-3--------3--------3-----5--------5--------5-----|
D|-1--------1--------1-----1--------1--------1-----|-------------------------3--------3--------3-----|



D|-------------------------------------------------|-------------------------------------------------|
A|-------------------------------------------------|-------------------------------------------------|
F|-------------------------------------------------|-------------------------------------------------|
C|-2--------2--------------2--------2--------------|-2-----------------2-----5--------2--------------|
G|-0--------0--------------0--------0--------------|-0-----------------0-----3--------0--------------|
D|-------------------3-----------------------3-----|----------3--------------------------------3-----|



D|-------------------------------------------------|-------------------------------------------------|----|
A|-------------------------------------------------|-------------------------------------------------|----|
F|-------------------------------------------------|-------------------------------------------------|----|
C|-------------------------------------------------|-5--------5--------5-----------------------------|----|
G|-3--------3--------3-----3--------3--------3-----|-3--------3--------3-----5-----x--x--x--x--x--x--|-2--|
D|-1--------1--------1-----1--------1--------1-----|-------------------------3-----x--x--x--x--x--x--|-0--|



************************************

| x   Dead note
| h   Hammer-on
| p   Pull-off
| PM  Palm mute
| .   Mute String

************************************
Suggest correction
Give kudos to tab author, rate the tab!
1 2 3 4 5
comments
print report bad tab
guest
You may want to rate the tab now too:
select rating
Wanna post a correction for this tab? Suggest correction