Oops, an error
Loading. Please wait.

Dina Händer Är Fulla Av Blommor Chords

7 views 3 this week
no commentswrite comment
1 2 3 4 5
3 more votes to show rating
add to favorites
launch autoscroll
font size
0
reset
transpose
0
reset
simplify chords
display chords
guitar tuner
Autoscroll
slow
fast
+/-
esc
set tempo
stop
Help us to improve Ultimate-Guitar.com Take our survey!
×
Author
Difficulty
Capo
novice
2nd fret
Dina Händer Är Fulla Av Blommor by Ingenting
from Tomhet, Idel Tomhet

(CAPO på 2:a bandet)

Am            C
 så minns jag dig
Am         C
 som en person
G           Fmaj7
 som aldrig gjort
Am        C
 mig besviken

Am             C
 och jag minns hur
Am         C
 du ser på mig
G           Fmaj7
 och håller om
Am              C
 mig så lätt du kan

G               Fmaj7   Am
 dina händer är fulla av blommor
G             Fmaj7    Am
 dina ögon är fulla av liv

Am              C
 jag läser ditt brev
Am          C
 du skriver att
G             Fmaj7
 du blivit så trött
Am                 C
 kanske inte orkar mer

Am             C
 så jag ringer dig
Am        C
 du säger att
G              Fmaj7
 du känner dig tom
Am                    C
 älskling kan du inte se

G               Fmaj7   Am
 dina händer är fulla av blommor
G             Fmaj7    Am
 dina ögon är fulla av liv

   Am
e|-----8-----8-----------10------10-----------7-----7----------8-----8-----|
B|-------------------------------------------------------------------------|
G|---9-----9-----9----10------10------10----7-----7-----7----9-----9-----9-|
D|-------------------------------------------------------------------------|x2
A|-0-----0-----0----0-------0-------0-----0-----0-----0----0-----0-----0---|
E|-------------------------------------------------------------------------|

   C                Dm                    E7               Am
e|-----8-----8-----------10------10-----------7-----7----------8-----8-----|
B|-------------------------------------------------------------------------|
G|---9-----9-----9----10------10------10----7-----7-----7----9-----9-----9-|
D|------------------0-------0-------0--------------------------------------|x2
A|----------------------------------------7-----7-----7----0-----0-----0---|
E|-8-----8-----8-----------------------------------------------------------|

Am           C
 snälla ring mig
Am           C
 när allt du vet
G           Fmaj7
 och trodde på
Am           C
 har rasat samman

Am           C
 snälla ring mig
Am          C
 kom ta min hand
G            Fmaj7
 lägg det på mig
Am          C
 så lätt du kan

G               Fmaj7   Am
 dina händer är fulla av blommor
G             Fmaj7    Am
 dina ögon är fulla av liv
G               Fmaj7    Am
 dina läppar är fyllda av sånger
G              Fmaj7     Am
 dina dagar är fyllda av tid
Suggest correction
Give kudos to tab author, rate the tab!
1 2 3 4 5
comments
print report bad tab
guest
You may want to rate the tab now too:
select rating
Wanna post a correction for this tab? Suggest correction