Oops, an error
Loading. Please wait.

Levva Livet Tab

19 views 1 this week
no commentswrite comment
1 2 3 4 5
2 more votes to show rating
add to favorites
launch autoscroll
font size
0
reset
how to read this tab
guitar tuner
Autoscroll
slow
fast
+/-
esc
set tempo
stop
Help us to improve Ultimate-Guitar.com Take our survey!
×
Author
About this tab version
"Levva Livet" is currently not available in the database. Was this info helpful? Yes No
[Riff 1:] 
 
E|--------------------------!--------| 
B|--------------------------!-9-10-9-| 
G|--------------------------!-9-9--9-| 
D|-2-2-2-2-2-2-2-2-2-2-2-2-2!--------| 
A|-2-2-2-2-2-2-2-2-2-2-2-2-2!--------| 
E|-0-0-0-0-0-0-0-0-0-0-0-0-0!--------| 
 
 
[Riff 2:] 
 
E|-----------------------------12----------------------| 
B|-9-10-12-12-12-12-12-12-12-12--12-12-9-10-10-10-12-10| 
G|-9-9--9--9--9--9--9--9--9--9---9--9--9-11-11-11-11-11| 
D|-----------------------------------------------------| 
A|-----------------------------------------------------| 
E|-----------------------------------------------------| 
 
E|------------------------------------| 
B|-17-17-16-17-17-16-14-14-14-12-10-12| 
G|-16-16-16-16-16-16-14-14-14-13-11-13| 
D|------------------------------------| 
A|------------------------------------| 
E|------------------------------------| 
 
! = part that's not always repeated
  
[Intro:] 

[Riff 1:] 
 
E|--------------------------|--------| 
B|--------------------------|-9-10-9-| 
G|--------------------------|-9-9--9-| 
D|-2-2-2-2-2-2-2-2-2-2-2-2-2|--------| 
A|-2-2-2-2-2-2-2-2-2-2-2-2-2|--------| x3
E|-0-0-0-0-0-0-0-0-0-0-0-0-0|--------|
 
E|--------------------------|
B|--------------------------|
G|--------------------------|
D|-2-2-2-2-2-2-2-2-2-2-2-2-2|
A|-2-2-2-2-2-2-2-2-2-2-2-2-2|
E|-0-0-0-0-0-0-0-0-0-0-0-0-0|

[Riff 2:] x2
 
E|-----------------------------12----------------------| 
B|-9-10-12-12-12-12-12-12-12-12--12-12-9-10-10-10-12-10| 
G|-9-9--9--9--9--9--9--9--9--9---9--9--9-11-11-11-11-11| 
D|-----------------------------------------------------| 
A|-----------------------------------------------------| 
E|-----------------------------------------------------| 
 
E|------------------------------------| 
B|-17-17-16-17-17-16-14-14-14-12-10-12| 
G|-16-16-16-16-16-16-14-14-14-13-11-13| 
D|------------------------------------| 
A|------------------------------------| 
E|------------------------------------| 

 
[Verse:] 
 
       E 
Æ syns atomkrig e for jævlig 
       F#m7 
men at høsten kan vær fin 
       B 
og det beste her på jorda 
    A        E 
det e å væra din 
 
E 
Æ syns at Reagan e ein tulling  
      F#m 
og at vintern e før lang  
       B 
hvis æ mesta dæ vart livet mett  
    A              E 
ein tung og dyster sang 
 
            B                 E 
Men når det bles som værst på toppan 
       A             E 
og når galskapen får rå 
       B                E 
ska vi hold omkring hverainner 
      A                E  
og vi veit det her ska gå 
 
[Ref:] 
 
C#m A     E    A  E  A 
Å - å levva livet 
C#m A     E    A  E  A 
Å - å levva livet 
C#m A     E    A  E  A 
Å - å levva livet 
C#m A       E     
Å - å levva livet 
 
[Keyboard Solo] 
 
[Riff 2:] 
 
E|-----------------------------12----------------------| 
B|-9-10-12-12-12-12-12-12-12-12--12-12-9-10-10-10-12-10| 
G|-9-9--9--9--9--9--9--9--9--9---9--9--9-11-11-11-11-11| 
D|-----------------------------------------------------| 
A|-----------------------------------------------------| 
E|-----------------------------------------------------| 
 
E|------------------------------------| 
B|-17-17-16-17-17-16-14-14-14-12-10-12| 
G|-16-16-16-16-16-16-14-14-14-13-11-13| 
D|------------------------------------| 
A|------------------------------------| 
E|------------------------------------| 
 
[Verse:] 
E 
E syns Andropov e ein gærning  
      F#m 
og at vintern e før lang  
       B 
hvis æ mesta dæ vart livet mett  
    A       E 
ein tung og dyster sang 
 
E                             
Men når det bles som værst på toppan 
       F#m 
og når galskapen får rå 
       B       
ska vi hold omkring hverainner 
      A                E  
og vi veit det her ska gå 
 
[Saxofon Solo] 
 
[Ref:] 
 
C#m A     E    A  E  A 
Å - å levva livet 
C#m A     E    A  E  A 
Å - å levva livet 
C#m A     E    A  E  A 
Å - å levva livet 
C#m A       E    
Å - å levva livet 
  

[Riff 2:] x2
 
E|-----------------------------12----------------------| 
B|-9-10-12-12-12-12-12-12-12-12--12-12-9-10-10-10-12-10| 
G|-9-9--9--9--9--9--9--9--9--9---9--9--9-11-11-11-11-11| 
D|-----------------------------------------------------| 
A|-----------------------------------------------------| 
E|-----------------------------------------------------| 
 
E|------------------------------------| 
B|-17-17-16-17-17-16-14-14-14-12-10-12| 
G|-16-16-16-16-16-16-14-14-14-13-11-13| 
D|------------------------------------| 
A|------------------------------------| 
E|------------------------------------| 
 
Play Refrain until it fades. 
Spill Refrenget til det er slutt.
Suggest correction
Give kudos to tab author, rate the tab!
1 2 3 4 5
comments
print report bad tab
guest
You may want to rate the tab now too:
select rating
Wanna post a correction for this tab? Suggest correction