Oops, an error
Loading. Please wait.

Il Posto Più Freddo Tab

70 views 6 this week
no commentswrite comment
1 2 3 4 5
2 more votes to show rating
add to favorites
launch autoscroll
font size
0
reset
how to read this tab
guitar tuner
Autoscroll
slow
fast
+/-
esc
set tempo
stop
Help us to improve Ultimate-Guitar.com Take our survey!
×
Author
[Verse]

E|--------------------------------2--2--------------|
B|--6--6--------0--0--------0--0--2--2--------------|
G|--7--7--4--4--2--2--4--4--2--2--2--2--------------| x2
D|--7--7--4--4--2--2--4--4--2--2--4--4--2--2--6--6--|
A|--5--5--2--2--------2--2--------4--4--2--2--6--6--|
E|--------------------------------2--2--0--0--4--4--|

E|--------------------------------------------------------------------------------------------|
B|--------------------------------------------------------------------3--3--0--0--------------|
G|--------4--4--5--5--5--5--------------7--7--7--7--5--5--5--5--------4--4--2--2--------7--7--|
D|--5--5--4--4--5--5--5--5--7--7--2--2--7--7--7--7--5--5--5--5--5--5--4--4--2--2--2--2--7--7--|
A|--5--5--2--2--3--3--3--3--7--7--2--2--5--5--5--5--3--3--3--3--5--5--2--2--------2--2--5--5--|
E|--3--3--------------------5--5--0--0--------------------------3--3--------------0--0--------|


[Chorus]

guit1(tutto due volte):

E|--------------------------------------------------|
B|--------------------------------------------------|
G|--5--5--5--5--7--7--7--7--------------------------| x3
D|--5--5--5--5--7--7--7--7--5--5--5--5--9--9--9--9--|
A|--3--3--3--3--5--5--5--5--5--5--5--5--9--9--9--9--|
E|--------------------------3--3--3--3--7--7--7--7--|

E|--------------------------------------------------|
B|--------------------------------------------------|
G|--5--5--5--5--7--7--7--7--------------------------|
D|--5--5--5--5--7--7--7--7--5--5--5--5--------------|
A|--3--3--3--3--5--5--5--5--5--5--5--5--7--7--7--7--|
E|--------------------------3--3--3--3--5--5--5--5--|

guit2(synth):

E|-----------------------------------------------------|
B|-----------------------------------------------------|
G|--4-----4-----7-----7-----4-----4-----2-----2--------|
D|-----5-----5-----5-----5-----5-----5-----4-----4-----|
A|-----------------------------------------------------|
E|-----------------------------------------------------|


[Verse]

E|--------------------------------2--2--------------|
B|--6--6--------0--0--------0--0--2--2--------------|
G|--7--7--4--4--2--2--4--4--2--2--2--2--------------| x2
D|--7--7--4--4--2--2--4--4--2--2--4--4--2--2--6--6--|
A|--5--5--2--2--------2--2--------4--4--2--2--6--6--|
E|--------------------------------2--2--0--0--4--4--|

E|--------------------------------------------------------------------------------------------|
B|--------------------------------------------------------------------3--3--0--0--------------|
G|--------4--4--5--5--5--5--------------7--7--7--7--5--5--5--5--------4--4--2--2--------7--7--|
D|--5--5--4--4--5--5--5--5--7--7--2--2--7--7--7--7--5--5--5--5--5--5--4--4--2--2--2--2--7--7--|
A|--5--5--2--2--3--3--3--3--7--7--2--2--5--5--5--5--3--3--3--3--5--5--2--2--------2--2--5--5--|
E|--3--3--------------------5--5--0--0--------------------------3--3--------------0--0--------|


[Chorus]

guit1(tutto due volte):

E|--------------------------------------------------|
B|--------------------------------------------------|
G|--5--5--5--5--7--7--7--7--------------------------| x3
D|--5--5--5--5--7--7--7--7--5--5--5--5--9--9--9--9--|
A|--3--3--3--3--5--5--5--5--5--5--5--5--9--9--9--9--|
E|--------------------------3--3--3--3--7--7--7--7--|

E|--------------------------------------------------|
B|--------------------------------------------------|
G|--5--5--5--5--7--7--7--7--------------------------|
D|--5--5--5--5--7--7--7--7--5--5--5--5--------------|
A|--3--3--3--3--5--5--5--5--5--5--5--5--7--7--7--7--|
E|--------------------------3--3--3--3--5--5--5--5--|

guit2(synth):

E|-----------------------------------------------------|
B|-----------------------------------------------------|
G|--4-----4-----7-----7-----4-----4-----2-----2--------|
D|-----5-----5-----5-----5-----5-----5-----4-----4-----|
A|-----------------------------------------------------|
E|-----------------------------------------------------|


[Outro]

guit1:

E|--------------------------------------------------------------|
B|--------------------------------------------------------------|
G|--5--5--7--7--5--5--7--7--5--5--5--7--7--7--5--5--------7--7--|
D|--5--5--7--7--5--5--7--7--5--5--5--7--7--7--5--5--5--5--7--7--|
A|--3--3--5--5--3--3--5--5--3--3--3--5--5--5--3--3--5--5--5--5--|
E|--------------------------------------------------3--3--------|
Suggest correction
Give kudos to tab author, rate the tab!
1 2 3 4 5
comments
print report bad tab
guest
You may want to rate the tab now too:
select rating
Wanna post a correction for this tab? Suggest correction