Oops, an error
Loading. Please wait.

Här Kommer Pippi Långstrump Tab

25 views 1 this week
no commentswrite comment
1 2 3 4 5
3 more votes to show rating
add to favorites
launch autoscroll
font size
0
reset
how to read this tab
guitar tuner
Autoscroll
slow
fast
+/-
esc
set tempo
stop
Help us to improve Ultimate-Guitar.com Take our survey!
×
Author
Difficulty
novice
[Verse 1]
   F                Gm          C7             F
e|-----------------|-----------|--------------|--------|
B|-----------------|-----------|--------------|--------|
G|------------2----|-0---4---0-|---0----------|----2---|
D|-----3--3-----3--|-----------|-2----2-----2-|-3------|
A|-3---------------|-----------|---------3----|--------|
E|-----------------|-----------|--------------|--------|
   Kaikki on vinksin vonksin tai ainakin heikun keikun

                Gm           C7               F
e|-------------|------------|----------------|---------|
B|-------------|------------|----------------|---------|
G|--------2----|-0-4----0---|------0---------|---------|
D|---3------3--|----------3-|-2------2-----2-|-3-------|
A|-3-----------|------------|-----------3----|---------|
E|-------------|------------|----------------|---------|
   Arvaas oikun  eikun, kuka  oon, joko arvaat sen?

[Verse 2]
  F              Gm          C7              F
e|--------------|-----------|---------------|----------|
B|--------------|-----------|---------------|----------|
G|-------2-2----|-0-4---0---|----0----------|----2-----|
D|----3-------3-|---------3-|-2-----------2-|-3--------|
A|-3------------|-----------|--------3------|----------|
E|--------------|-----------|---------------|----------|
   Ullan nimi on  Ulla, nimi  toinen vaan on  mulla

                 Gm           C7             F
e|--------------|------------|--------------|---------|
B|--------------|------------|--------------|---------|
G|--------2-----|-0--4---0---|----0---------|---------|
D|-----3-----3--|----------3-|-2----------2-|-3-------|
A|-3------------|------------|---------3----|---------|
E|--------------|------------|--------------|---------|
   Jos et millään arvaa, sanon suoraan sulle sen:

[Chorus]
   F              Bb              C7
e|---------------|---------------|------------------|-----------|
B|---------------|---------------|------------------|-----------|
G|-2-2---2--2--2-|-4--4--4-2---2-|-0---0-0--0-------|-------0---|
D|---------------|---------------|--------------3-3-|-2--3------|
A|---------------|---------------|------------------|-----------|
E|---------------|---------------|------------------|-----------|
   Tässä on Peppi  Pitkätossu, la  hop sula hei sula  hopsansaa,

   F             Bb          C7              F
e|--------------|-----------|--------------|--------|
B|--------------|-----------|--------------|--------|
G|-2-2--2--2--2-|-4--4--4-2-|-0--0---------|--------|
D|--------------|-----------|--------3---2-|-3------|
A|--------------|-----------|--------------|--------|
E|--------------|-----------|--------------|--------|
   Tässäpä Peppi  Pitkätossu  nauraa hah hah haa.
Suggest correction
Give kudos to tab author, rate the tab!
1 2 3 4 5
comments
print report bad tab
guest
You may want to rate the tab now too:
select rating
Wanna post a correction for this tab? Suggest correction