Oops, an error
Loading. Please wait.

Keine Ist Wie Du Bass Tab

version 1
version 1

Whole song

  • Bass Tab for a song from boehse onkelz. It is not ... Show more

Interactive

13 views 3 this week
no commentswrite comment
1 2 3 4 5
3 more votes to show rating
add to favorites
launch autoscroll
font size
0
reset
guitar tuner
Autoscroll
slow
fast
+/-
esc
set tempo
stop
Help us to improve Ultimate-Guitar.com Take our survey!
×
Author
About this tab version
Bass Tab for a song from boehse onkelz. It is not perfect, but a good aid to learn the song on your bass. Was this info helpful? Yes No
[Intro]
G|-------------------------|
D|-------------------------|
A|-5-4---------------------| x3
E|-----5-7-4-0-2-3-2--x-x--|

G|--------------|
D|--------------|
A|-5-4----------|
E|-----5-7-4-2--|

[Verse]
Sie war meine erste Liebe, sie war wunderschön.
G|---------------------------------------------------------------------------|
D|---------------------------------------------------------------------------|
A|-8p7-7-7-7-7-7-7-7-7-7-7-7-7--8p7-7-7-10-10-10-12-12-12-12-12-12-12-12-----|
E|---------------------------------------------------------------------------|

Sie lächelte mich an, es war um mich geschehen.
G|---------------------------------------------------------------------------|
D|---------------------------------------------------------------------------|
A|-8p7-7-7-7-7-7-7-7-7-7-7-7-7--8p7-7-7-10-10--------------------------------|
E|--------------------------------------------10-10-10-10-10-10-10-10-10-----|

Sie drang tief in meine Haut, dies Gefühl vergess ich nie.
G|---------------------------------------------------------------------------|
D|---------------------------------------------------------------------------|
A|---------------------------------------------------------------------------|
E|-7-7-7-7-7-7-7-7-7-7-7-7-7-7-7-7-7-7-7-7-7-7-7-7-7-7-7-7-7-7-7-7-7-7-7-----|

Diesen bitter-süßen Schmerz, keine andere ist wie sie.
G|---------------------------------------------------------------------------|
D|---------------------------------------------------------------------------|
A|-8p7-7-7-7-7-7-7-7-7-7-7-7-7-7-7-7-7-7-7-7-7-7-7-7-7-7-7-7-7-7-7-7-7-7-7---|
E|---------------------------------------------------------------------------|

[Chorus]
Ohh keine ist wie du. (2x)
G|---------------------------------------------------------------------------|
D|---------------------------------------------------------------------------|
A|---------------5-5-5-5-5-5-5---------------3-3-3-3-3-3-3-------------------|
E|-3-3-3-3-3-3-3---------------0-0-0-0-0-0-0---------------------------------|

************************************

| x   Dead note
| p   Pull-off

************************************
Suggest correction
Give kudos to tab author, rate the tab!
1 2 3 4 5
comments
print report bad tab
guest
You may want to rate the tab now too:
select rating
Wanna post a correction for this tab? Suggest correction