Oops, an error
Loading. Please wait.

Como Camarón Chords

version 4
version 4

Whole song

52 views 9 this week
no commentswrite comment
1 2 3 4 5
3 more votes to show rating
add to favorites
launch autoscroll
font size
0
reset
transpose
0
reset
simplify chords
display chords
guitar tuner
Autoscroll
slow
fast
+/-
esc
set tempo
stop
Help us to improve Ultimate-Guitar.com Take our survey!
×
Author
Difficulty
About this tab version
Correct chords and arpegios, confirmed. Was this info helpful? Yes No
[Intro]

  Am9
e|---------------------|---------------------|---------------------|---------------------|
B|----------0----------|----------0----------|----------0----------|-0-------------------|
G|-------5-----5-----5-|-------5-----5-----5-|-------5-----5-----5-|-5-------------------|
D|----7-----------7----|----7-----------7----|----7-----------7----|-7-------------------|
A|-0-------------------|-0-------------------|-0-------------------|-0-------------------|
E|---------------------|---------------------|---------------------|---------------------|

            Am9
Superior a mi
                    Am9   
Es la fuerza que me lleva
                    Am9
En el pulso que mantengo
                     Am9
Con la oscuridad que tiñe
                    Em
De oscuro tus ojos negros

Em                   F
Y que me cuentas del tiempo
               F
Que pasa en su pestañeo
                       F  
Y que me trae por esta calle
                   E 
De amargura y de lamento
                    

  Am9
e|---------------------|---------------------|---------------------|---------------------|
B|----------0----------|----------0----------|----------0----------|----------0----------|
G|-------5-----5-----5-|-------5-----5-----5-|-------5-----5-----5-|-------5-----5-----5-|
D|----7-----------7----|----7-----------7----|----7-----------7----|----7-----------7----|
A|-0-------------------|-0-------------------|-0-------------------|-0-------------------|
E|---------------------|---------------------|---------------------|---------------------|
                        Em                                          F
e|---------------------|---------------------|---------------------|---------------------|
B|----------0----------|----------0----------|----------0----------|----------1----------|
G|-------5-----5-----5-|-------0-----0-----0-|-------0-----0-----0-|-------2-----2-----2-|
D|----7-----------7----|----2-----------2----|----2-----------2----|----3-----------3----|
A|-0-------------------|---------------------|---------------------|---------------------|
E|---------------------|-0-------------------|-0-------------------|-1-------------------|

                                              E
e|---------------------|---------------------|---------------------|-0-------------------|
B|----------1----------|----------1----------|----------0----------|-0-------------------|
G|-------2-----2-----2-|-------2-----2-----2-|-------1-----1-----1-|-1-------------------|
D|----3-----------3----|----3-----------3----|----2-----------2----|-2-------------------|
A|---------------------|---------------------|---------------------|-2-------------------|
E|-1-------------------|-1-------------------|-0-------------------|-0-------------------|
          
      
[Verse 1]
                   F
Que yo se que la sonrisa
                    G
Que se dibuja en mi cara
                     Em
Tiene que ver con la brisa
                 Am
Que abanica tu mirada

                     F
Tan despacio y tan deprisa
                    G
Tan normal y tan extraña
                 Em
Yo me parto la camisa
     F      G
Como Camarón

                   Am
Tu me rompes las entrañas
                    Em
Me trepas como una araña
                      F
Bebes del sudor que empaña
                         G
El cristal de mi habitación
                   Am
Y después por la mañana
                     Em
Despierto y no tengo alas
                    F
Llevo diez horas durmiendo
                       G
Y mi almohada está empapada
                   F
Todo había sido un sueño
                  G
Muy real y muy profundo
                   Em
Tus ojos no tienen dueño
                      F    G
Porque no son de este mundo


[Verse 2]
                     Am9
Que no te quiero mirar
                       Am9
Pero es que cierro los ojos
                    Am9
Y hasta te veo por dentro
                      Am9
Te veo en un lado y en otro,
                        G
En cada foto, en cada espejo
Em                   F
Y en las paredes del metro
                    F
Y en los ojos de la gente
                     F
Hasta en la sopa más caliente
                     E
Loco yo me estoy volviendo

 Am9
e|---------------------|---------------------|---------------------|---------------------|
B|----------0----------|----------0----------|----------0----------|----------0----------|
G|-------5-----5-----5-|-------5-----5-----5-|-------5-----5-----5-|-------5-----5-----5-|
D|----7-----------7----|----7-----------7----|----7-----------7----|----7-----------7----|
A|-0-------------------|-0-------------------|-0-------------------|-0-------------------|
E|---------------------|---------------------|---------------------|---------------------|
                        G                     Em                    F
e|---------------------|---------------------|---------------------|---------------------|
B|----------0----------|----------3----------|----------0----------|----------1----------|
G|-------5-----5-----5-|-------4-----4-----4-|-------0-----0-----0-|-------2-----2-----2-|
D|----7-----------7----|----5-----------3----|----2-----------2----|----3-----------3----|
A|-0-------------------|---------------------|---------------------|---------------------|
E|---------------------|-3-------------------|-0-------------------|-1-------------------|

                                              E
e|---------------------|---------------------|---------------------|-0-------------------|
B|----------1----------|----------1----------|----------0----------|-0-------------------|
G|-------2-----2-----2-|-------2-----2-----2-|-------1-----1-----1-|-1-------------------|
D|----3-----------3----|----3-----------3----|----2-----------2----|-2-------------------|
A|---------------------|---------------------|---------------------|-2-------------------|
E|-1-------------------|-1-------------------|-0-------------------|-0-------------------|


[Verse 1]
                    F
Que yo se que la sonrisa
                    G
Que se dibuja en mi cara
                     Em
Tiene que ver con la brisa
                 Am
Que abanica tu mirada

                     F
Tan despacio y tan deprisa
                    G
Tan normal y tan extraña
                 Em
Yo me parto la camisa
     F      G
Como Camarón

                   Am
Tu me rompes las entrañas
                    Em
Me trepas como una araña
                      F
Bebes del sudor que empaña
                         G
El cristal de mi habitación
                   Am
Y después por la mañana
                     Em
Despierto y no tengo alas
                    F
Llevo diez horas durmiendo
                       G
Y mi almohada está empapada
                   F
Todo había sido un sueño
                  G
Muy real y muy profundo
                   Em
Tus ojos no tienen dueño
                      F    G
Porque no son de este mundo


[Verse 3]
                F
Y a veces me confundo
              G
Y pico a tu vecina
          Em
Esa del segundo
                Am
Que vende cosa fina
               F
Y a veces te espero
                  G
En el bar de la esquina
         Em                     Am 
Con la mirada fija en tu portería
             F
Y a veces me como
                G 
De un bocao' el mundo
             Em 
Y a veces te siento
             F
Y a veces te tumbo
           F                   G
A veces te leo un beso en los labios
                 Em
Y como yo no me atrevo
              F 
Me corto y me abro


[Verse 1]
                   F
Que yo se que la sonrisa
                    G
Que se dibuja en mi cara
                     Em
Tiene que ver con la brisa
                 Am
Que abanica tu mirada

                     F
Tan despacio y tan deprisa
                    G
Tan normal y tan extraña
                 Em
Yo me parto la camisa
     F      G
Como Camarón

                   Am
Tu me rompes las entrañas
                    Em
Me trepas como una araña
                      F
Bebes del sudor que empaña
                         G
El cristal de mi habitación
                   Am
Y después por la mañana
                     Em
Despierto y no tengo alas
                    E
Llevo diez horas durmiendo
                       G
Y mi almohada está empapada
                   F
Todo había sido un sueño
                  G
Muy real y muy profundo
                   Em
Tus ojos no tienen dueño
                      F    G
Porque no son de este mundo
Suggest correction
Give kudos to tab author, rate the tab!
1 2 3 4 5
comments
print report bad tab
guest
You may want to rate the tab now too:
select rating
Wanna post a correction for this tab? Suggest correction