Oops, an error
Loading. Please wait.

Nålens Öga Chords

by Kent
16 views 1 this week
no commentswrite comment
1 2 3 4 5
3 more votes to show rating
add to favorites
launch autoscroll
font size
0
reset
transpose
0
reset
display chords
guitar tuner
Autoscroll
slow
fast
+/-
esc
set tempo
stop
Help us to improve Ultimate-Guitar.com Take our survey!
×
Author
Difficulty
[Intro]

 | Em  | G   | D   | Am  | x 2


 |Em              |G               |D               |Am              |
 |                |                |                |                |
e|----------------|----------------|----------------|------12--------|
B|15--------------|15--------------|--12------------|--12------------|
G|------12------12|--------12----12|14----14------12|14--------------| x 2
D|----------------|----------------|----------------|----------------|
A|----------------|----------------|----------------|----------------|
E|----------------|----------------|----------------|----------------|


[Vers]
C
 Nån står i porten 
G
 och andas rök 
D
skuggan över gården
    Am
når in i vårt kök 
C                           D
 Här kommer rädslan, gamle vän 
           Em                    D
När alla fjärilar i magen vaknar upp 
               Am
Viskar välkommen hem 


[Refräng]
C                       D
 Jag räknar tre, fyra, fem 
           G                C
(ljug för mig, ja ljug för mig) 
                        Bm
Det är inte slagen som känns
      G Am
(ljug igen)
          C          D
Det går en osynlig gräns 
           G                C
(ljug för mig, ja ljug för mig) 
               G D
genom ögat på nålen


[Mellanspel]

 |Em              |G               |D               |Am              |
 |                |                |                |                |
e|----------------|----------------|----------------|------12--------|
B|15--------------|15--------------|--12------------|--12------------|
G|------12------12|--------12----12|14----14------12|14--------------| x 2
D|----------------|----------------|----------------|----------------|
A|----------------|----------------|----------------|----------------|
E|----------------|----------------|----------------|----------------|


[Vers]
C
 Nån står i dörren 
G
 och lyssnar stum 
D
skuggan över tröskeln 
    Am
når in i mitt rum 
C                         D
 Här kommer rädslan, nu igen 
           Em                   D
När alla fjärilar i magen nålas upp
                      Am    
till ett mönster på min säng 


[Refräng]
C                       D
 Jag räknar tre, fyra, fem 
           G                C
(ljug för mig, ja ljug för mig) 
                        Bm
Det är inte slagen som känns 
      G Am
(ljug igen) 
          C          D
Det går en osynlig gräns 
           G                C
(ljug för mig, ja ljug för mig) 
             
genom ögat på 

 |G       D       |C               |C               |Em              |
 |                |                |                |                |
e|----------------|----------------|----------------|----------------|
B|--------------77|7---8-------8-7-|----8-10----8-88|7---8-------8-7-|
G|----------------|------9---------|----------------|------9---------|
D|----------------|----------------|----------------|----------------|
A|----------------|----------------|----------------|----------------|
E|----------------|----------------|----------------|----------------|

  nå - - - - - len


 |Em              |B               |B               |C               |
 |                |                |                |                |
e|----------------|----------------|----------------|----------------|
B|----8-10----8-88|7---8-7-----8-7-|----8-7-----8-7-|----8-------8-7-|
G|----------------|----------------|----------------|------9---------|
D|----------------|----------------|----------------|----------------|
A|----------------|----------------|----------------|----------------|
E|----------------|----------------|----------------|----------------|



 |D               |G               |G               |


[Refräng]
N.C
Jag räknar tre, fyra, fem 

(ljug för mig, ja ljug för mig) 

Det är inte slagen som känns 

(ljug igen) 

Det går en osynlig gräns 

(ljug för mig, ja ljug för mig) 
             
genom ögat på nålen


[Outro]

 |Em               |Em               |C
Suggest correction
Give kudos to tab author, rate the tab!
1 2 3 4 5
comments
print report bad tab
guest
You may want to rate the tab now too:
select rating
Wanna post a correction for this tab? Suggest correction