Oops, an error
Loading. Please wait.

Fusil Contra Fusil Tab

version 3
version 3

Whole song

22 views 3 this week
no commentswrite comment
1 2 3 4 5
3 more votes to show rating
add to favorites
launch autoscroll
font size
0
reset
how to read this tab
guitar tuner
Autoscroll
slow
fast
+/-
esc
set tempo
stop
Help us to improve Ultimate-Guitar.com Take our survey!
×
Author
Difficulty
novice
Artist: Silvio Rodriguez
Song: Fusil Contra Fusil

[Verse]
El    silencio    de    monte        va      Preparando su adiós
                         Am          Bm      C
e|------------------------------------2--------------------------------------|
B|-------0-------0------------1-------3-----------1--------0-----------------|
G|-----0-------0-----0-----2----------4---------0--------0--------0----------|
D|-----------------0------------------4-------------------------0------------|
A|----------------------0-------------2-----3--------------------------------|
E|--0-------3-------------------------2--------------3-----------------------|

              A                                    D
e|----------------------------------------3---2---0-------3-2-0---0----------|
B|---3----2----0-------3-2-0-----0---------------------3--------3---3--------|
G|------------------2--------2-----2--------2---2---2------------------------|
D|---------------------------------------------------------------------------|
A|-----0----0----0-----------------------------------------------------------|
E|---------------------------------------------------------------------------| 

La     palabra      que     se       dirá   In memoriam será, 
                         Am          Bm      C
e|------------------------------------2--------------------------------------|
B|-------0-------0------------1-------3-----------1--------0-----------------|
G|-----0-------0-----0-----2----------4---------0--------0--------0----------|
D|-----------------0------------------4-------------------------0------------|
A|----------------------0-------------2-----3--------------------------------|
E|--0-------3-------------------------2--------------3-----------------------|
                                                           La explosión
              A                                    D
e|----------------------------------------3---2---0-------3-2-0---0----------|
B|---3----2----0-------3-2-0-----0---------------------3--------3---3--------|
G|------------------2--------2-----2--------2---2---2------------------------|
D|---------------------------------------------------------------------------|
A|-----0----0----0-----------------------------------------------------------|
E|---------------------------------------------------------------------------| 

[Chorus]
Em        D                 Em
Se perdió el hombre de este siglo allí
D            Em
Su nombre y apellido son
D             E  
¡fusil contra fusil!
G         A              G
Se quebró la cáscara del viento al sur
A          G
Y sobre la primera cruz
A            C       E
Despierta la verdad

[Verse]
Todo     el       mundo     tercero  va      A enterar su dolor
                         Am          Bm      C
e|------------------------------------2--------------------------------------|
B|-------0-------0------------1-------3-----------1--------0-----------------|
G|-----0-------0-----0-----2----------4---------0--------0--------0----------|
D|-----------------0------------------4-------------------------0------------|
A|----------------------0-------------2-----3--------------------------------|
E|--0-------3-------------------------2--------------3-----------------------|

              A                                    D
e|----------------------------------------3---2---0-------3-2-0---0----------|
B|---3----2----0-------3-2-0-----0---------------------3--------3---3--------|
G|------------------2--------2-----2--------2---2---2------------------------|
D|---------------------------------------------------------------------------|
A|-----0----0----0-----------------------------------------------------------|
E|---------------------------------------------------------------------------| 

Con    granizo    de    plomo     harán   Su agujero de honor, 
                         Am          Bm      C
e|------------------------------------2--------------------------------------|
B|-------0-------0------------1-------3-----------1--------0-----------------|
G|-----0-------0-----0-----2----------4---------0--------0--------0----------|
D|-----------------0------------------4-------------------------0------------|
A|----------------------0-------------2-----3--------------------------------|
E|--0-------3-------------------------2--------------3-----------------------|

                                                                Su canción
              A                                    D
e|----------------------------------------3---2---0-------3-2-0---0----------|
B|---3----2----0-------3-2-0-----0---------------------3--------3---3--------|
G|------------------2--------2-----2--------2---2---2------------------------|
D|---------------------------------------------------------------------------|
A|-----0----0----0-----------------------------------------------------------|
E|---------------------------------------------------------------------------| 

[Chorus]
Em      D             Em 
Dejarán el cuerpo de la vida allí
D             Em 
Su nombre y apellido son
D             E
¡fusil contra fusil!
G        A          G  
Cantarán su luto de hombre y animal
A          G       
Y en vez de lágrimas echar
A               C   E
Con plomo llorarán
Em      D
Alzarán al hombre
D              Em         
De la tumba al sol
D           Em
Y el nombre se repetirán
D            Em    D
Fusil contra fusil    x3
D            E
Fusil contra fusil
G A C E
Suggest correction
Give kudos to tab author, rate the tab!
1 2 3 4 5
comments
print report bad tab
guest
You may want to rate the tab now too:
select rating
Wanna post a correction for this tab? Suggest correction