Oops, an error
Loading. Please wait.

Hepinize El Salladım Chords

by Adamlar
3,892 views 21 this week
no commentswrite comment
1 2 3 4 5
x 8
add to favorites
launch autoscroll
font size
0
reset
transpose
0
reset
simplify chords
display chords
guitar tuner
Autoscroll
slow
fast
+/-
esc
set tempo
stop
Author
Difficulty
novice
About this tab version
These are the chords they play live. Was this info helpful? Yes No
Strumming
There is no strumming pattern for this song yet. and get +5 IQ
[Intro]
Am G Fmaj7 E Am
Am G Fmaj7 E Am

[Verse 1]
C       G           Am      G
Atlar düşer, krallıklar yıkılır
         F             E
Kuşlar göçer, senden n'aber?
C         G           Am        G
Tek mevsimlik çiçek gibi açıp solan
        F               E
Neyin peşinde, var mı haber? 

[Pre-Chorus]
Dm            E      Dm           E
Zor zamanlar olur, nasıl çıkarsan içinden
 Dm       F         E
Omurgan öyle şekillenir.
  Dm        E     Dm           E
Beni sorarsanız bazen cennet yeri,
  Dm         F         E
Bazen cehennemin dibi evim gibi, evim gibi...

[Chorus]
    E                                                 Am
e|--0---------------------0~----0---------------------0~--------------------|
B|--0--3-1--0----------0--0~----0--3-1--0----------0--1~--------------------|
G|--1----------2-1--2-----1~----1----------2-1--2-----2~--------------------|
D|--2---------------------2~----2---------------------2~--------------------|
A|--2---------------------2~----2---------------------0~--------------------|
E|--0---------------------0~----0-------------------------------------------|

   E
Bi akşamüstü yuvarlandım yerlerde
                       Am
Bi akşamüstü sarıldım kendime
Dm                  E
Döndüm ve arkama baktım
E
Hepinize el salladım.

    E
e|--0---------------------|
B|--0--3-1--0-------1--0--|
G|--1----------2~---------|
D|--2---------------------|
A|--2---------------------|
E|--0---------------------|

[Bridge]
Am G Fmaj7 E Am

[Verse 2]
C        G        Am            G
Kendim kadar sonsuzum bu dert benim
       F           E
İçim dışım yanar döner
C        G            Am        G
Günler geçer, yaram bana kucak açar
       F               E
Yolum ateşmiş ne fark eder?

[Pre-Chorus]
Dm            E      Dm           E
Zor zamanlar olur, nasıl çıkarsan içinden
 Dm       F         E
Omurgan öyle şekillenir.
  Dm        E     Dm           E
Beni sorarsanız bazen cennet yeri,
  Dm         F         E
Bazen cehennemin dibi evim gibi, evim gibi...

[Chorus]
    E                                                 Am
e|--0---------------------0~----0---------------------0~--------------------|
B|--0--3-1--0----------0--0~----0--3-1--0----------0--1~--------------------|
G|--1----------2-1--2-----1~----1----------2-1--2-----2~--------------------|
D|--2---------------------2~----2---------------------2~--------------------|
A|--2---------------------2~----2---------------------0~--------------------|
E|--0---------------------0~----0-------------------------------------------|

   E                     
Bi akşamüstü yuvarlandım yerlerde
                       Am
Bi akşamüstü sarıldım kendime
Dm                  E
Döndüm ve arkama baktım
E                 Am
Hepinize el salladım.

    E                            E                     E                           Am
e|--0----------------------------0---------------------0~----0---------------------0~--------------------|
B|--0--3-1--0------1--0----------0--3-1--0----------0--0~----0--3-1--0----------0--1~--------------------|
G|--1----------2~-------2~-------1----------2-1--2-----1~----1----------2-1--2-----2~--------------------|
D|--2----------------------------2---------------------2~----2---------------------2~--------------------|
A|--2----------------------------2---------------------2~----2---------------------2~--------------------|
E|--0----------------------------0---------------------0~----0-------------------------------------------|

   E
Bi akşamüstü yuvarlandım yerlerde
                       Am
Bi akşamüstü sarıldım kendime
Dm                  E
Döndüm ve arkama baktım
                  Am
Hepinize el salladım.
    E
e|--0---------------------------------|
B|--0--3-1--0------1--0---------------|
G|--1----------2~-------2~------------|
D|--2---------------------------------|
A|--2---------------------------------|
E|--0------------------------0-3~--0--|

F                   E
Döndüm ve arkama baktım,
E
Hepinize el salladım.

   E
e|--0--------------------------|
B|--0--3-1--0------1--0--------|
G|--1----------2~--------------|
D|--2--------------------------|
A|--2--------------------------|
E|--0--------------------------|

[Outro]
Am G Fmaj7 E Am
Suggest correction
comments
print report bad tab
guest
You may want to rate the tab now too:
select rating
Wanna post a correction for this tab? Suggest correction