Oops, an error
Loading. Please wait.

Aš Tave Subadysiu Tab

7 views 1 this week
no commentswrite comment
1 2 3 4 5
3 more votes to show rating
add to favorites
launch autoscroll
font size
0
reset
how to read this tab
guitar tuner
Autoscroll
slow
fast
+/-
esc
set tempo
stop
Help us to improve Ultimate-Guitar.com Take our survey!
×
Author
Difficulty
Tuning
intermediate
D G C F A D
PERGALĖ -- AŠ TAVE SUBADYSIU (I WILL STAB YOU) 

D-tuning

[Intro]

e|---------|---------|---------|---------|---------|---------|---------|---------|
B|---------|---------|---------|---------|---------|---------|---------|---------|
G|---------|---------|---------|---------|---------|---------|---------|---------|
D|---------|---------|---------|---------|---------|---------|---------|---------| x2
A|---------|---------|---------|---------|---------|---------|---------|-3-3-----|
E|-5-5-5-5-|-5-5-5-5-|-5-5-5-5-|-5-5-5-5-|-1-1-1-1-|-1-1-1-1-|-0-0-0-0-|-----3-3-|

e|----|----17--------------------|
B|----|-----------18----17-------|
G|----|-14-----------------------|
D|----|-----------15----14-------| x2
A|-12-|--------------------15-12-|
E|----|--------13----12----------|
Suggest correction
Give kudos to tab author, rate the tab!
1 2 3 4 5
comments
print report bad tab
guest
You may want to rate the tab now too:
select rating
Wanna post a correction for this tab? Suggest correction