Oops, an error
Loading. Please wait.

Aš Tave Subadysiu Tab

22 views 3 this week
no commentswrite comment
1 2 3 4 5
3 more votes to show rating
add to favorites
launch autoscroll
font size
0
reset
how to read this tab
guitar tuner
×
Best way to learn
"Aš Tave Subadysiu"
Autoscroll
slow
fast
+/-
esc
set tempo
stop
Author
Difficulty
intermediate
PERGALĖ -- AŠ TAVE SUBADYSIU (I WILL STAB YOU) 

Standard tuning

[Intro]

e|---------|---------|---------|---------|---------|---------|---------|---------|
B|---------|---------|---------|---------|---------|---------|---------|---------|
G|---------|---------|---------|---------|---------|---------|---------|---------|
D|---------|---------|---------|---------|---------|---------|---------|---------| x2
A|---------|---------|---------|---------|---------|---------|---------|-5-5-----|
E|-7-7-7-7-|-7-7-7-7-|-7-7-7-7-|-7-7-7-7-|-3-3-3-3-|-3-3-3-3-|-2-2-2-2-|-----5-5-|

e|----|----19--------------------|
B|----|-----------20----19-------|
G|----|-16-----------------------|
D|----|-----------17----16-------| x2
A|-14-|--------------------17-14-|
E|----|--------15----14----------|
Suggest correction
Give kudos to tab author, rate the tab!
1 2 3 4 5
comments
print report bad tab
guest
You may want to rate the tab now too:
select rating
Wanna post a correction for this tab? Suggest correction