Oops, an error
Loading. Please wait.

Quando A Alma Não É Pequena Bass Tab

13 views 1 this week
no commentswrite comment
1 2 3 4 5
1 last vote to show rating
add to favorites
launch autoscroll
font size
0
reset
guitar tuner
Autoscroll
slow
fast
+/-
esc
set tempo
stop
Help us to improve Ultimate-Guitar.com Take our survey!
×
Author
Difficulty
novice
DEAD COMBO – QUANDO A ALMA NÃO É PEQUENA


Very easy to play, and the same pattern is used throughout.


G ||---------------------------------|
D ||---------------------------------|
A ||--5-------5----------------------|
E ||5---------------5-3-------1--0---|

Alternatively:

G ||---------------------------------|
D ||--0-------0----------------------|
A ||0---------------0----------------|
E ||------------------3-------1--0---|


Sometimes when performing live, Pedro changes the bassline, e.g:


G ||---------------------------------|
D ||-----7--------7------------------|
A ||--5-------5--5-5-----------------|
E ||5-------5-------5-3--3----1--0---|
Suggest correction
Give kudos to tab author, rate the tab!
1 2 3 4 5
comments
print report bad tab
guest
You may want to rate the tab now too:
select rating
Wanna post a correction for this tab? Suggest correction