Oops, an error
Loading. Please wait.

Don Medellín Tab

1,459 views 309 this week
no commentswrite comment
1 2 3 4 5
2 more votes to show rating
add to favorites
launch autoscroll
font size
0
reset
how to read this tab
guitar tuner
Autoscroll
slow
fast
+/-
esc
set tempo
stop
Help us to improve Ultimate-Guitar.com Take our survey!
×
Author
Difficulty
novice
-------------------------------------------------------------------------------
                             Don Medellín - Salmo
-------------------------------------------------------------------------------
Tabbed by: Caterina Scopelliti
Tuning: eBGDAE

[Intro]
G#m
Dancing with the devil
G#m
dancing with the devil
F#         E
We're high before the show?

Riff 1:

e|---------------------------------------------------------------------------|
B|---------------------------------------------------------------------------|
G|---------------------------------------------------------------------------|
D|----6-----------6-----------6------6-----------6-----------6---------------|
A|---------------------------------------------------------------------------|
E|-4-----4-----7-----4-----7-----4-----4-----7-----4-----7-------------------|


e|---------------------------------------------------------------------------|
B|---------------------------------------------------------------------------|
G|---------------------------------------------------------------------------|
D|----6-----------6-----------6------4-----3-----2---------------------------|
A|---------------------------------------------------------------------------|
E|-4-----4-----7-----4-----7-------------------------------------------------|


Now play riff 2:

e|---------------------------------------------------------------------------|
B|---------------------------------------------------------------------------|
G|----6--4-------------------------------------------------------------------|
D|----------4--6-------------------------------------------------------------|
A|---------------------------------------------------------------------------|
E|-4--------------7--6--4----------------------------------------------------|

Potrei stare nudo tutto il santo giorno 
sotto la vestaglia tipo attore porno 
mi sa che anche stanotte faccio mezzogiorno 
mi sveglierò in salotto con le tigri da soggiorno 
ho visto tutto Narcos e ho i baffi come Pablo 
in pochi sanno che il mio vero nome è Santiago 
ho più fucili di Chirac e Chicago 
ed ad ogni mio nemico gli apro il cranio e ci cago 

And now riff 1:

e|---------------------------------------------------------------------------|
B|---------------------------------------------------------------------------|
G|---------------------------------------------------------------------------|
D|----6-----------6-----------6------6-----------6-----------6---------------|
A|---------------------------------------------------------------------------|
E|-4-----4-----7-----4-----7-----4-----4-----7-----4-----7-------------------|


e|---------------------------------------------------------------------------|
B|---------------------------------------------------------------------------|
G|---------------------------------------------------------------------------|
D|----6-----------6-----------6------4-----3-----2---------------------------|
A|---------------------------------------------------------------------------|
E|-4-----4-----7-----4-----7-------------------------------------------------|

potrei fare più grano 
il sultano 
mentre gli altri insultano 
compro casa a Lugano 
e giro il cash come involtini 
con la faccia da ruffiano e i risvoltini 

Riff 2:

e|---------------------------------------------------------------------------|
B|---------------------------------------------------------------------------|
G|----6--4-------------------------------------------------------------------|
D|----------4--6-------------------------------------------------------------|
A|---------------------------------------------------------------------------|
E|-4--------------7--6--4----------------------------------------------------|

per strada fanno fuoco 
in giro è coprifuoco 
i pacchi con la spunta sotto 
brah ti do una punta in loco 
il mio cliente zoppo senza un occhio 
braccio monco, parla poco 
dice solo "I'm in love with the Coco!" 
Lancio il sasso tipo Morra 
faccio questa vita perché la mia serie preferita è Gomorra 
il cattivo preferito prende forma 
metto soldi nel soffitto e perdo chili, peso forma 

Riff 1:

e|---------------------------------------------------------------------------|
B|---------------------------------------------------------------------------|
G|---------------------------------------------------------------------------|
D|----6-----------6-----------6------6-----------6-----------6---------------|
A|---------------------------------------------------------------------------|
E|-4-----4-----7-----4-----7-----4-----4-----7-----4-----7-------------------|


e|---------------------------------------------------------------------------|
B|---------------------------------------------------------------------------|
G|---------------------------------------------------------------------------|
D|----6-----------6-----------6------4-----3-----2---------------------------|
A|---------------------------------------------------------------------------|
E|-4-----4-----7-----4-----7-------------------------------------------------|

Quando tutto cambia, come cambia il vento 
c'è chi costruisce muri, chi mulini a vento 
ma io sarò più svelto puoi credermi 
il mio nome è Medellín 
Don Medellín..

Don Medellín (x4)

G#m
Dancing with the devil
Take it nice and slow
Sipping gin and venom
We're high before the show
And I look like an angel
But I don't have a soul
Singing with the devil
And my lips taste like blow


Riff 2:

e|---------------------------------------------------------------------------|
B|---------------------------------------------------------------------------|
G|----6--4-------------------------------------------------------------------|
D|----------4--6-------------------------------------------------------------|
A|---------------------------------------------------------------------------|
E|-4--------------7--6--4----------------------------------------------------|

Stivali el charro 
il capo del barrio 
ho una taglia sulla testa tipo El Mayo 
dovresti farmi santo per quante volte appaio e scompaio 
el Diablo muove chili al dettaglio 
lingotti bianchi fanno castelli 
muovo un impero con i carrelli 
faremo un party con i cartelli 
dalle mie parti sparano sui cartelli 

Riff 1:

e|---------------------------------------------------------------------------|
B|---------------------------------------------------------------------------|
G|---------------------------------------------------------------------------|
D|----6-----------6-----------6------6-----------6-----------6---------------|
A|---------------------------------------------------------------------------|
E|-4-----4-----7-----4-----7-----4-----4-----7-----4-----7-------------------|


e|---------------------------------------------------------------------------|
B|---------------------------------------------------------------------------|
G|---------------------------------------------------------------------------|
D|----6-----------6-----------6------4-----3-----2---------------------------|
A|---------------------------------------------------------------------------|
E|-4-----4-----7-----4-----7-------------------------------------------------|

Quando tutto cambia, come cambia il vento 
c'è chi costruisce muri, chi mulini a vento 
ma io sarò più svelto puoi credermi 
il mio nome è Medellín 
Don Medellín..

Don Medellín (x4)

Riff 2:

e|---------------------------------------------------------------------------|
B|---------------------------------------------------------------------------|
G|----6--4-------------------------------------------------------------------|
D|----------4--6-------------------------------------------------------------|
A|---------------------------------------------------------------------------|
E|-4--------------7--6--4----------------------------------------------------|

Sotto questa pioggia col cappotto nero 
brillo perchè ho fatto il botto nel mercato nero 
sto a cavallo come i Mescaleros 
senza vie come gli eretici 
io sono Dio credici 
e la mia benedizione è un M16 
e pah! faccio fuori questi infami 
ho un esercito di colombiani 
con cui mi esercito a tagliare mani 
sangue sul Cartier 
valigetta e jet privée 
vino e cruditè 
sento certe voci su di me

G#m
dicono che guardo troppi film? 
troppe serie alla tv? 
hah! ma sai che me ne sbatte brah, io sono Medellín 
Don Medellín

G#m
Dancing with the devil
Take it nice and slow
Sipping gin and venom
We're high before the show
And I look like an angel
But I don't have a soul
Singing with the devil
And my lips taste like blow

G#m
Don Medellín.(x4)

G#m        F#
So baby be careful 
G#m
when you dance with the devil
Suggest correction
Give kudos to tab author, rate the tab!
1 2 3 4 5
comments
print report bad tab
guest
You may want to rate the tab now too:
select rating
Wanna post a correction for this tab? Suggest correction