Oops, an error
Loading. Please wait.

Aer Lângă Aer Bass Tab

1 view 1 this week
no commentswrite comment
1 2 3 4 5
3 more votes to show rating
add to favorites
launch autoscroll
font size
0
reset
guitar tuner
Autoscroll
slow
fast
+/-
esc
set tempo
stop
Help us to improve Ultimate-Guitar.com Take our survey!
×
Author
Difficulty
[Verse 1]

G|-----------------|-----------------|-----------------|-----------------|
D|-----------------|-----------------|-----------------|-----------------|
A|-----------------|-5-------7-------|-----------------|-5-------7-------|
E|-5---0---5---0---|-----5-------7---|-5---0---5---0---|-----5-------7---|

G|-----------------|-----------------|-----------------|-----------------|
D|-----------------|-----------------|-----------------|-----------------|
A|-----------------|-5-------7-------|-----------------|-5-------7-------|
E|-5---0---5---0---|-----5-------7---|-5---0---5---0---|-----5-------7---|

[Chorus]

G|-----------------|-----------------|-----------------|-----------------|
D|-----------------|-----------------|-----------------|-----------------|
A|-----------------|-5-------7-------|-----------------|-5-------7-------|
E|-5---0---5---0---|-----5-------7---|-5---0---5---0---|-----5-------7---|

G|-----------------|-----------------|-----------------|-----------------|
D|-----------------|-----------------|-----------------|-----------------|
A|-----------------|-5-------7-------|-----------------|-5-------7-------|
E|-5---0---5---0---|-----5-------7---|-5---0---5---0---|-----5-------7---|

[Verse 2]

G|-----------------|-----------------|-----------------|-----------------|
D|-----------------|-----------------|-----------------|-----------------|
A|-----------------|-5-------7-------|-----------------|-5-------7-------|
E|-5---0---5---0---|-----5-------7---|-5---0---5---0---|-----5-------7---|

G|-----------------|-----------------|-----------------|-----------------|
D|-----------------|-----------------|-----------------|-----------------|
A|-----------------|-5-------7-------|-----------------|-5-------7-------|
E|-5---0---5---0---|-----5-------7---|-5---0---5---0---|-----5-------7---|

[Chorus]

G|-----------------|-----------------|-----------------|-----------------|
D|-----------------|-----------------|-----------------|-----------------|
A|-----------------|-5-------7-------|-----------------|-5-------7-------|
E|-5---0---5---0---|-----5-------7---|-5---0---5---0---|-----5-------7---|

G|-----------------|-----------------|-----------------|-----------------|
D|-----------------|-----------------|-----------------|-----------------|
A|-----------------|-5-------7-------|-----------------|-5-------7-------|
E|-5---0---5---0---|-----5-------7---|-5---0---5---0---|-----5-------7---|

G|-----------------|-----------------|-----------------|-----------------|
D|-----------------|-----------------|-----------------|-----------------|
A|-----------------|-5-------7-------|-----------------|-5-------7-------|
E|-5---0---5---0---|-----5-------7---|-5---0---5---0---|-----5-------7---|

G|-----------------|-----------------|-----------------|-----------------|
D|-----------------|-----------------|-----------------|-----------------|
A|-----------------|-5-------7-------|-----------------|-5-------7-------|
E|-5---0---5---0---|-----5-------7---|-5---0---5---0---|-----5-------7---|

G|-----------------|-----------------|-----------------|-----------------|
D|-----------------|-----------------|-----------------|-----------------|
A|-----------------|-5-------7-------|-----------------|-5-------7-------|
E|-5---0---5---0---|-----5-------7---|-5---0---5---0---|-----5-------7---|

G|-----------------|-----------------|-----------------|-----------------|
D|-----------------|-----------------|-----------------|-----------------|
A|-----------------|-5-------7-------|-----------------|-5-------7-------|
E|-5---0---5---0---|-----5-------7---|-5---0---5---0---|-----5-------7---|

G|-----------------|-----------------|-----------------|-----------------|
D|-----------------|-----------------|-----------------|-----------------|
A|-----------------|-5-------7-------|-----------------|-5-------7-------|
E|-5---0---5---0---|-----5-------7---|-5---0---5---0---|-----5-------7---|

G|-----------------|-----------------|-----------------|-----------------|
D|-----------------|-----------------|-----------------|-----------------|
A|-----------------|-5-------7-------|-----------------|-5-------7-------|
E|-5---0---5---0---|-----5-------7---|-5---0---5---0---|-----5-------7---|

G|-----------------|-----------------|-----------------|-----------------|
D|-----------------|-----------------|-----------------|-----------------|
A|-----------------|-5-------7-------|-----------------|-5-------7-------|
E|-5---0---5---0---|-----5-------7---|-5---0---5---0---|-----5-------7---|

G|-----------------|-----------------|-----------------|-----------------|
D|-----------------|-----------------|-----------------|-----------------|
A|-----------------|-5-------7-------|-----------------|-5-------7-------|
E|-5---0---5---0---|-----5-------7---|-5---0---5---0---|-----5-------7---|

G|-----------------|-----------------|-----------------|-----------------|
D|-----------------|-----------------|-----------------|-----------------|
A|-----------------|-5-------7-------|-----------------|-5-------7-------|
E|-5---0---5---0---|-----5-------7---|-5---0---5---0---|-----5-------7---|

G|-----------------|-----------------|-----------------|-----------------|
D|-----------------|-----------------|-----------------|-----------------|
A|-----------------|-5-------7-------|-----------------|-5-------7-------|
E|-5---0---5---0---|-----5-------7---|-5---0---5---0---|-----5-------7---|

G|-----------------|-----------------|-----------------|-----------------|
D|-----------------|-----------------|-----------------|-----------------|
A|-----------------|-5-------7-------|-----------------|-5-------7-------|
E|-5---0---5---0---|-----5-------7---|-5---0---5---0---|-----5-------7---|

G|-----------------|-----------------|
D|-----------------|-----------------|
A|-----------------|-----------------|
E|-5---------------|-----------------|
Suggest correction
Give kudos to tab author, rate the tab!
1 2 3 4 5
comments
print report bad tab
guest
You may want to rate the tab now too:
select rating
Wanna post a correction for this tab? Suggest correction