Oops, an error
Loading. Please wait.

Ace Of Spades Chords

version 4
version 4

Whole song

  • Ace Of Spades Acoustic version As heard on the Kronenbourg 1664 Beer Commercial.
25 views 1 this week
no commentswrite comment
1 2 3 4 5
3 more votes to show rating
add to favorites
launch autoscroll
font size
0
reset
transpose
0
reset
display chords
guitar tuner
Autoscroll
slow
fast
+/-
esc
set tempo
stop
Help us to improve Ultimate-Guitar.com Take our survey!
×
Author
About this tab version
Ace Of Spades Acoustic version As heard on the Kronenbourg 1664 Beer Commercial. Was this info helpful? Yes No
Ace Of Spades Acoustic version 

Eddie Clarke Ian Kilmister Phil Taylor 

As heard on the Kronenbourg 1664 Beer Commercial


 [Intro]  x2

e|-------------------|----------------------|
B|-------------------|----------------------|
G|----2----2--2----2-|----2----2----2----2--|
D|----2----2--2----2-|----2----2----2----2--|
A|-3b-0----0--0----0-|-3b-0----0-3b-0----0--|
E|------3b------3b---|------3b--------3b----|


[Verse]

C        
If you like to gamble,  I tell you I'm your man  
C                                    
You win some, loose some, it's all the same to me
     
 [Intro]  

    G                        F  
The pleasure is to play it makes no difference what you say

 [Intro]
   G                            F           
I don't share your greed  the only card I need               
A
Is the Ace of Spades (Intro) the Ace of Spades (Intro)

 [Intro] 


[Verse]

C     
Playing for the high one, dicing with the devil
C  
Going with the flow, it's all a game to me

Intro x 2

G                 F  
Seven or eleven, snake eyes watchin' you

 [Intro] 

G                   F  
Double up or quit, double stake or split          
A
The Ace of Spades  (Intro)  

 [Intro] 

[Middle eight] 

    A                         G       A  
You know I'm born to loose      and gambling's for fools
   N.C.                              E  
But that's the way I like it baby, I don't want to live forever
G                       A   G   F  
E  
 And don't forget the joker

[Solo]

e|--------------------|----------------------------|
B|--------------------|----------------------------|
G|-----------10-10----|----------------------10-10-|
D|-12-12\10-10----/12-|-12\10-10/12~-12/10-10------|
A|--------------------|----------------------------|
E|--------------------|----------------------------|


e|---------------------------------------------------|--------------||
B|-------------------------------------------12------|--------------||
G|------------------12------12----12---12---12----12-|--------------||    
D|-12\10/12-12-10/12---10/12---10/--10/--10/---10/---|--12\10-------||          
A|---------------------------------------------------|--------12\3--||         
E|---------------------------------------------------|--------------||


 [Intro] 

[Verse]

 
C    
Pushing up the ante,  I know you've got to see me
C
Read 'em and weep,  the  dead man's hand again

 [Intro] 

   G                     F  
I see it in your eyes, take one look and die
Intro 
    G                         F  
The only thing you see,  you know it's gonna be 
            
The Ace of Spades  (Intro)  the   Ace of Spades  (Intro)   
       

[Outro]

  [Intro] 

G       G             F       F      x 2 
A       G        A      A       G       A       
Suggest correction
Give kudos to tab author, rate the tab!
1 2 3 4 5
comments
print report bad tab
guest
You may want to rate the tab now too:
select rating
Wanna post a correction for this tab? Suggest correction