Oops, an error
Loading. Please wait.

Line Of Fire Chords

49 views 15 this week
no commentswrite comment
1 2 3 4 5
3 more votes to show rating
add to favorites
launch autoscroll
font size
0
reset
transpose
0
reset
simplify chords
display chords
guitar tuner
Autoscroll
slow
fast
+/-
esc
set tempo
stop
Help us to improve Ultimate-Guitar.com Take our survey!
×
Author
Hey guys, I dont know the name of chords, but it think they should sound like that.

enjoy


[INTRO] - [VERSE]

Am (normal)
e|----------0-----------------|
B|----------1-----------------|
G|----------2-----------------|
D|----------2-----------------|
A|----------0-----------------|
E|----------------------------|

AM/G
e|----------0-----------------|
B|----------1-----------------|
G|----------0-----------------|
D|----------2-----------------|
A|----------0-----------------|
E|----------3-----------------|

F#/Dsus
e|----------0-----------------|
B|----------1-----------------|
G|----------2-----------------|
D|----------0-----------------|
A|----------0-----------------|
E|----------2-----------------|

[Chorus]

C 
e|----------0-----------------|
B|----------3-----------------|
G|----------0-----------------|
D|----------2-----------------|
A|----------3-----------------|
E|----------------------------|

G 
e|----------0-----------------|
B|----------3-----------------|
G|----------0-----------------|
D|----------0-----------------|
A|----------2-----------------|
E|----------3-----------------|

D
e|----------0-----------------|
B|----------3-----------------|
G|----------0-----------------|
D|----------4-----------------|
A|----------5-----------------|
E|----------5-----------------|



[Verse]

Am
What would you do
AM/G              F#/Dsus
if it all came back to you?
Am
Each crest of each wave
AM/G              F#/Dsus
bright as lightning.

Am
What would you say
AM/G              F#/Dsus
if you had to leave today?
Am 
leave everything behind
AM/G              F#/Dsus
even though for once, you're shining.


[Chorus]

C               G
Standing on higher ground

when you hear the sounds
                 D
you realize it's just the whim.
C                 G
And you notice it matters
                 D
who and what you let under your skin.

[Verse]

Am
If Put to the test
AM/G                  F#/Dsus
would you step back from the line of fire?
Am 
Hold everything back
AM/G              F#/Dsus
all emotions set desire.
Am               AM/G
Convince yourself   to be someone else
F#/Dsus
and come back from the world your lack of confidence.
Am                   AM/G
What you choose to believe in
                           F#/Dsus
Dictates your rise or your fall


                            C
Dictates your rise or your fall
                   G
with no one else around you

no one to understand you
                    D
no one to hear your calls.
C                          G
Look through all your dark corners
                               D
you're backed up against the wall

                           Am        AM/G       F#/Dsus
Step back from the line of fire x 8


https://www.youtube.com/watch?v=2q8b8j2PJJ4
Suggest correction
Give kudos to tab author, rate the tab!
1 2 3 4 5
comments
print report bad tab
guest
You may want to rate the tab now too:
select rating
Wanna post a correction for this tab? Suggest correction