Oops, an error
Loading. Please wait.

The Wolf Chords

by Leø
10 views 6 this week
no commentswrite comment
1 2 3 4 5
3 more votes to show rating
add to favorites
launch autoscroll
font size
0
reset
transpose
0
reset
display chords
guitar tuner
Autoscroll
slow
fast
+/-
esc
set tempo
stop
Help us to improve Ultimate-Guitar.com Take our survey!
×
Author
Difficulty
intermediate
Since there might be some confusion about the Break,
Pt1 is before she sings "the wolves", while pt2 is played along with her voice. 

You can check the band out on their
Facebook: https://m.facebook.com/leotheband/
Soundcloud: https://m.soundcloud.com/leotheband/

[Intro]
           Gm                 Bb                       Eb
e|--------------------|---------------|----------------------------------|
B|-----3-------3------|---3-----3-----|---3-------3--------3-------3-----|
G|-----3-------3------|---3-----3-----|---3-------3--------3-------3-----|
D|--5-------5-----5---|3-----3-----3--|1-------1-----1--1-------1-----1--|
A|--------------------|---------------|----------------------------------|
E|--------------------|---------------|----------------------------------|

[Break (pt1)]
   Gm      Bb      Eb   
e|-----6-------5-------3|
B|--8-------6-------4---|
G|----------------------|
D|----------------------|
A|----------------------|
E|----------------------|

[Break (pt2)]
e|11--10----11--10--8-----------8---------|--11--10----11--10--8p6-------------------|
B|-----------------------8--11-----11-----|---------------------------8--11---6---8--|
G|----------------------------------------|------------------------------------------|
D|----------------------------------------|------------------------------------------|
A|----------------------------------------|------------------------------------------|
E|----------------------------------------|------------------------------------------|

[Verse 1]
Gm                Bb
   You run like a wolf
                            Eb
like the cold blood through my veins
Gm              Bb
   picking up speed as the drugs
     Eb
overtake my brain

[Verse 2]
Gm                  Bb
   You howl like a wolf
                   Eb
like the sound in my heart
Gm             Bb
   howling for love
               Eb
howling for a brand new start

[Verse 3]
Gm       Bb           Eb
 Falling out falling down
Gm                 Bb                  Eb
   this lone wolf can survive in this lonely town
Gm             Bb                Eb
   apart from you, I don't want to go
Gm                     Bb              Eb
   but there's nothing else for me here anymore 
   Gm Bb Eb        Gm Bb Eb
anymo------re, anymo-------re

[Verse 4]
Gm Bb            Eb                                Gm Bb
ho---w can you say that I'll be okay without your lo---ve
            Eb
should be enough to guide me through this maze
    Gm               Bb                  Eb
and I won't stray, I won't lose my way
    Gm               Bb
and I won't stray, I won't lose my way
        Eb
I will keep running with the wolves

[Break pt1]
[Break pt2] starts around
   here v     
     Gm Bb Eb         Gm Bb Eb
The wo-----lves, the wo-----lves
Suggest correction
Give kudos to tab author, rate the tab!
1 2 3 4 5
comments
print report bad tab
guest
You may want to rate the tab now too:
select rating
Wanna post a correction for this tab? Suggest correction