Oops, an error
Loading. Please wait.

Aviéntame Bass Tab

version 2
version 2

Whole song

Interactive

4 views 1 this week
no commentswrite comment
1 2 3 4 5
3 more votes to show rating
add to favorites
launch autoscroll
font size
0
reset
guitar tuner
Autoscroll
slow
fast
+/-
esc
set tempo
stop
Help us to improve Ultimate-Guitar.com Take our survey!
×
Author
Difficulty
intermediate
[Intro]
G|------------------------------------|
D|------------------------------------|
A|------------------------------------|
E|------5-5----7-7----8-8----7-7------|

G|------------------------------------|
D|------------------------------------|
A|-----/6-5-3-------------------------|  Arreglo
E|------------5-5--7-7--8-8--7-7------|

[Verse]
G|-----------------------------------------|
D|-----------------------------------------|
A|-----------------/3----------------/3----|
E|-1-1-----1-1-1--------5-5--5-5-5---------| (x3)

[Pre-Chorus]
G|-----------------------------------------------------------------|
D|-----------------------------------------------------------------|
A|-----------------/3----------------/3----------------------------|
E|-1-1-----1-1-1--------5-5--5-5-5-------5-5---7-7--8-8--7-7-------|

[Chorus]
G|------------------------------------------|
D|------------------------------------------|
A|--------------------------------3-3-------|
E|------5-5----1-1----3-3----5-5-------3-3--| (x2)

[Solo]
G|---------------------------------|
D|---------------------------------|
A|---------------------------------|
E|------5-5----1-1----3-3----------|

G|-----------------------|
D|--------3---------3----|
A|----3h5---3-5--3-5-----|
E|--------------5--------|

G|---------------------------------|
D|---------------------------------|
A|---------------------------------|
E|------5-5----1-1----3-3----------| (x3)

[Verse]
G|-----------------------------------------|
D|-----------------------------------------|
A|-----------------/3----------------/3----|
E|-1-1-----1-1-1--------5-5--5-5-5---------| (x3)

[Pre-Chorus]
G|-----------------------------------------------------------------|
D|-----------------------------------------------------------------|
A|-----------------/3----------------/3----------------------------|
E|-1-1-----1-1-1--------5-5--5-5-5-------5-5---7-7--8-8--7-7-------|

[Chorus]
G|------------------------------------------|
D|------------------------------------------|
A|--------------------------------3-3-------|
E|------5-5----1-1----3-3----5-5-------3-3--|


************************************

| /  Slide up
| h  Hammer-on

************************************
Suggest correction
Give kudos to tab author, rate the tab!
1 2 3 4 5
comments
print report bad tab
guest
You may want to rate the tab now too:
select rating
Wanna post a correction for this tab? Suggest correction