Oops, an error
Loading. Please wait.

Halo Tab

version 4
version 4

Whole song

Interactive

31 views 27 this week
no commentswrite comment
1 2 3 4 5
3 more votes to show rating
add to favorites
launch autoscroll
font size
0
reset
how to read this tab
guitar tuner
Autoscroll
slow
fast
+/-
esc
set tempo
stop
Help us to improve Ultimate-Guitar.com Take our survey!
×
Author
Capo
3rd fret
[Main riff]
    G                                             Am
e|---------------------------------------------------------------------------|
B|---0-----------0-----------0-----------0------0-1-----------1--------------|
G|---------0-----------0-----------0--------0-2---------2-----------2--------|
D|------0-----0-----0-----0-----0-----0--------------2-----2-----2-----2-----|
A|------------------------------------------------0-----------0--------------|
E|---3-----------3-----------3-----------3-----------------------------------|
                            Em
e|---------------------------------------------------------------------------|
B|--1-----0-------0----------------------------------------------------------|
G|--------------2---2p0-----0-----------0-----------0-----------0-2-0--------|
D|-----2-----2----------5---------2-----------2-----------2-----------5------|
A|--0--------------------------2-----2-----2-----2-----2-----2---------------|
E|--------------------------0-----------0-----------0------------------------|
   C
e|---------------------------------------------------------------------------|
B|---------------------------------------------------------------------------|
G|-0-----------0-----------0-----------0-------------------------------------|
D|-------2-----------2-----------2-------5-2-0-------------------------------|
A|----3-----3-----3-----3-----3-----3----------------------------------------|
E|---------------------------------------------------------------------------|


************************************

| p  Pull-off

************************************
Suggest correction
Give kudos to tab author, rate the tab!
1 2 3 4 5
comments
print report bad tab
guest
You may want to rate the tab now too:
select rating
Wanna post a correction for this tab? Suggest correction