Oops, an error
Loading. Please wait.

Shalala Tab

4 views 1 this week
no commentswrite comment
1 2 3 4 5
3 more votes to show rating
add to favorites
launch autoscroll
font size
0
reset
how to read this tab
guitar tuner
Autoscroll
slow
fast
+/-
esc
set tempo
stop
Help us to improve Ultimate-Guitar.com Take our survey!
×
--------------------------------------------------------
                    SHALALA - LA CABRA MECANICA
-------------------------------------------------------
chords by: Ignacio Mendez-Nunez
email: ignacio.mendeznunez@gmail.com

   C/G: 332010
     F: 133211
Bbsus2: x13321
  D/F#: 2x0232
     G: 320003
    Am: 002010
  Am/G: 3x2010
  Am7:  575555
  Am6:  5x655x
Bbdim (very high): x-x-15-16-15-16

[Intro]
C/G F  x3 
Bbsus2

[Verse 1]
C/G              F               
  Si no salta la liebre a la olla
C/G                     F
con el gato, con su sofrito, y sus cosas buenas
C/G                F
luego pondré velas,  cenamos
   Bbsus2
acto seguido nos amamos y contamos una a una las 
C/G       F      
estrellas, 
C/G            F
¡todas ellas!
   C/G                   F
un, dos, un, dos, tres, cuatro, cinco, seis,
Bbsus2
siete, ocho, nueve, diez...


Intro/Bridge with Riff 
  C/G    F           C/G    F     C/G    F        C/G  (scratch as much as possible)
e|---------------------------------------------------------------------------|
B|-5-x---------5-----5-x---------6-5-----------5-----------------------------|
G|-5-x---------5-----5-x---------5-5-----------5-------9s-x-5----------------|
D|-5-x-----5-7-------5-x-----5---7-5-----5--7---------10s-x-5-5-x-x-x--------|
A|-------8-----------------8------------8---------------------3-x-x-x--10----|
E|---------------------------------------------------------------------------|


[Verse 2]
C/G                 F   
 Que me dices si te digo
    C/G                     F   
tanto tiempo mirando a las moscas que cuando me 
C/G            F   
miras con esos ojitos de rana
Bbsus2     (Riff 1)
   no sé, uno se acojona.  Y hay más príncipes
                     
C/G                 F   
princesa, y peces en el río, pero el río
 C/G                            F 
 baja tan contaminado, que no es echarle la culpa al
    C/G                    F 
pescado, tal vez prefiero carne,
Bbsus2
 o no me mojo o soy de secano.

Riff 1
e|---------------|
B|---3-5b-br-3---|
G|-3-------------|
D|---------------|
A|---------------|
E|---------------|

PUENTE:
Am               AmM7
Hay que tener un corazón
      D/F#
que se te salga del pecho aunque a veces pareciera
       Fm
que se te revienta el torax
Fm  Fm6 F
Si te vas
 C/G                E7 (or Bbdim) 
lloraré como una niña tonta
             
si te vas de verdad
Am        Am7
no me dejes por el medio tus cosas
D/F#             G
puerta y mucha mierda.

Electric Guitar
    Am           Am/G          D/F#          Fm
e|--12-12-12-12--12-12-12-12--12-12-12-12----8--8---8--10---8----------------|
B|--13-13-13-13--13-13-13-13--13-13-13-13----9--9---9---9---9----------------|
G|--14-14-14-14--13-13-13-13--12-12-12-12---10-10--10--10---8----------------|
D|---------------------------------------------------------------------------|
A|---------------------------------------------------------------------------|
E|---------------------------------------------------------------------------|
   C       E7 (Bbdim)   Am           Am/G         D/F#          G
e|--8-------15-----------17----------16-----------15------------10-----------|
B|--8-------16-----------17----------17-----------15------------10-----------|
G|--9-------15-----------17----------17-----------14------------12-----------|
D|-10-------16---------------------------------------------------------------|
A|-10------------------------------------------------------------------------|
E|---------------------------------------------------------------------------|

[Chorus]
C/G                 F   
Tizas de colores,
C/G                 F   
  zapatos nuevos
C/G                 F   
agüita de mayo
        Bbsus2
¿dónde coño puse el chubasquero?
C/G                 F   
Tizas de colores
C/G                 F   
zapatos nuevos
C/G                 F   
no me gasto ni un duro en suelas
C/G                 F   
desde que ando siempre a dos palmos del suelo, y tarareo

Am       C/G         D/F#
shalala, lalalalala, lalala. [x3]
Fm       C/G         D/F#     
shalala, lalalalala, lalala.



************************************

| /   slide up
| \   slide down
| h   hammer-on
| p   pull-off
| b   bend
| br  bend-release

************************************
Suggest correction
Give kudos to tab author, rate the tab!
1 2 3 4 5
comments
print report bad tab
guest
You may want to rate the tab now too:
select rating
Wanna post a correction for this tab? Suggest correction