Oops, an error
Loading. Please wait.

Soñando Contigo Tab

505 views 345 this week
no commentswrite comment
1 2 3 4 5
3 more votes to show rating
add to favorites
launch autoscroll
font size
0
reset
how to read this tab
guitar tuner
Autoscroll
slow
fast
+/-
esc
set tempo
stop
Help us to improve Ultimate-Guitar.com Take our survey!
×
Author
Soñando Contigo
AUTOR: Saurom
ALBUM: Sueños (2015)

[INTRO] ADAPTADO PARA GUITARRA (SUENA MEJOR CON CAPO EN TRASTE 12)
   D                                      A
e|-2-------2--------2-------0-2-3--2-3-2--0-------0-------0-------------0-|
B|---3---3---3---3----3---3-----------------2---2---2---2---2--0-2-0-2-3--|
G|-----2-------2------------------------------2-------2-------------------|
D|---------0--------------0-----------------------0-----------------------|
A|-0----------------0---------------------0---------------0---------------|
E|------------------------------------------------------------------------|

  D                           G                         A
e|-2-------0--------------------------------------------------------0-----|
B|---3---3---3---3---------------------3-------3--------2-3-2---------2---|
G|-----2-------2-----0-2-4-2----2-4-2----0---0---0---0--------2---2-----2-|
D|---------0-------------------------------0-------0------------2---------|
A|-0-------------------------------------------2--------0-----------2-----|
E|-------------------3--------3--------3----------------------------------|

[FLAUTA] (SE ACOMPAÑA NUEVAMENTE CON LA GUITARRA) X2
   D                   A                     Bm            G         A
e|-10-12-14-14---12-10-------------------------9-10-10--9-10-12--14-12-12-|
B|----------------------14-12-10-10-----10-12-----------------------------|
G|-----------------------------------11-----------------------------------|
D|------------------------------------------------------------------------|
A|------------------------------------------------------------------------|
E|------------------------------------------------------------------------|

  D            A          LIGADO
e|-------------------------7-10---7--7------------------------------|
B|-------7-7---------7-7---------------10-8-7-------7---------------|
G|-7-9-9-------7-9-9--------------------------7-7-9---9--9-9-7-6-7--|
D|------------------------------------------------------------------|
A|------------------------------------------------------------------|
E|------------------------------------------------------------------|

D
Y así que me encontré
            A
sentando aquí queriéndote escribir
                      G
que no hay ningún porque
                  D   A
para olvidar los sueños.

D                             A
Ayer me tropecé, te voy a contar
                                    G
con una niña que saltando en el jardín
                 D   A
quería coger la luna.

G
No pude evitar quedarme allí a mirar
D                 A
como esa niña saltaba una y otra vez.

G
Sonriendo me contó que no iba a descansar
D                      A
que con la luna algún día podía jugar.

[CORO]
D                              A
Míralo que con la mano casi llego ya,
                    Bm
solo me falta un suspiro quizás otro salto
               G  A
el sueño ya es mío.

D                               A
Créeme que no hay mejor manera de pasar
               Bm
las noches de luna olvidando las penas
                  G            A
que hallando la forma de estar
            D
soñando contigo.

[FLAUTA]
   D                   A                     Bm            G         A
e|-10-12-14-14---12-10-------------------------9-10-10--9-10-12--14-12-12-|
B|----------------------14-12-10-10-----10-12-----------------------------|
G|-----------------------------------11-----------------------------------|
D|------------------------------------------------------------------------|
A|------------------------------------------------------------------------|
E|------------------------------------------------------------------------|

  D            A          LIGADO
e|-------------------------7-10---7--7------------------------------|
B|-------7-7---------7-7---------------10-8-7-------7---------------|
G|-7-9-9-------7-9-9--------------------------7-7-9---9--9-9-7-6-7--|
D|------------------------------------------------------------------|
A|------------------------------------------------------------------|
E|------------------------------------------------------------------|

D
Crecí escuchando que
            A
hay que pensar con los pies en el suelo
             G                   D    A
siempre razonar la luna está muy lejos.

G
Pero me contagio sus ganas de vivir
D                          A
que no hay fronteras que todo puede ocurrir.

G
En la niña encontré lo que casi olvide
D                  A
dame tu mano y la luna conseguiré

[CORO]
D                              A
Míralo que con la mano casi llego ya,
                    Bm
solo me falta un suspiro quizás otro salto
               G  A
el sueño ya es mío.

D                               A
Créeme que no hay mejor manera de pasar
               Bm
las noches de luna olvidando las penas
                  G            A
que hallando la forma de estar
             Bm
soñando contigo.

[SOLO DE FLAUTA] X2
   Bm      G        D             A      Bm        G         A
e|---------7-------------------------------------------------------------|
B|-----7------------7-----7-7----10-8----7-7--------------------7--------|
G|-------7---7--7-9---9-7-----9--------------9-7-6---7---6-7-9----9-7-6-7|
D|-9-9---------------------------------------------9---------------------|
A|-----------------------------------------------------------------------|
E|-----------------------------------------------------------------------|

[SOLO GUITARRA]
   Bm                             G
e|-9-10-7-10---10---10----10---10---------------|
B|-----------8----7-----------------7-8---------|
G|----------------------9----7----9-----9-------|
D|----------------------------------------------|
A|----------------------------------------------|
E|----------------------------------------------|

   D                             A (LIGADO)
e|-9-10-7-10---10---10-----------9-10-9-7-------|
B|-----------8----7-------7-8-10----------------|
G|----------------------9-----------------------|
D|----------------------------------------------|
A|----------------------------------------------|
E|----------------------------------------------|

   Bm                             G
e|-9-10-7-10---10---10----10---10------------------------|
B|-----------8----7-----------------7-8---10--10-12-10---|
G|----------------------9----7----9-----9----------------|
D|-------------------------------------------------------|
A|-------------------------------------------------------|
E|-------------------------------------------------------|

  A
e|--------------|
B|-8-10-8-7-8---|
G|--------------|
A|--------------|
E|--------------|

CUALQUIER DUDA Y/O COMENTARIOS ESCRÍBANME A: siwar_9@hotmail.com
Suggest correction
Give kudos to tab author, rate the tab!
1 2 3 4 5
comments
print report bad tab
guest
You may want to rate the tab now too:
select rating
Wanna post a correction for this tab? Suggest correction