Oops, an error
Loading. Please wait.

Urodziłem Się W Polsce Chords

19 views 1 this week
no commentswrite comment
1 2 3 4 5
3 more votes to show rating
add to favorites
launch autoscroll
font size
0
reset
transpose
0
reset
display chords
guitar tuner
Autoscroll
slow
fast
+/-
esc
set tempo
stop
Help us to improve Ultimate-Guitar.com Take our survey!
×
Author
Difficulty
novice
About this tab version
Tab from Zle Psy off their album Polska, combined the chords into the tab for maximal efficiency without losing any detail. Was this info helpful? Yes No
Strumming
120 bpm
1
&
2
&
3
&
4
&
Play
Is this strumming pattern correct? Yes No
Złe Psy - Urodziłem się w Polsce
 

[Intro]

    Dm        G         A#            Dm        G         A#
e|-------0--------0---------0-----|--------0--------0---------0---------------|
B|-----3---3----3---3-----3---3---|------3---3----3---3-----3---3-------------|
G|--------------------------------|-------------------------------------------|
D|------------5---------3---------|-------------5---------3-------------------|
A|--5-----------------------------|----5--------------------------------------|
E|--------------------------------|-------------------------------------------|  x2

[Verse]
Dm     G     A#  
Ojciec Polak, matka Polka
Dm      G     A#  
Polskie miasto, Polska łąka
Dm     G    A#  
Piękna nasza Polska cała,
Dm    G     A#  
By ta Polska ocalała

    Dm        G         A#            Dm        G         A#
e|-------0--------0---------0-----|--------0--------0---------0---------------|
B|-----3---3----3---3-----3---3---|------3---3----3---3-----3---3-------------|
G|--------------------------------|-------------------------------------------|
D|------------5---------3---------|-------------5---------3-------------------|
A|--5-----------------------------|----5--------------------------------------|
E|--------------------------------|-------------------------------------------|

Dm  G      A# 
Ale jeszcze my żyjemy
Dm          G   A# 
Wszystkim w kolo pokażemy,
Dm    G      A# 
Jak wojować, jak wygrywać
Dm     G      A# 
Sprawiedliwie i gorliwie

[Chorus]

Dm        F     C   A# 
Urodziłem się w Polsce 
Dm        F     C   A# 
Urodziłem się w Polsce
Dm        F     C   A# 
Urodziłem się w Polsce
Dm        F     C   Dm 
Urodziłem się w Polsce

[Verse]

    Dm        G         A#            Dm        G         A#
e|--------------------------------|-------------------------------------------|
B|--------------------------------|-------------------------------------------|
G|--------------------------------|-------------------------------------------|
D|------------7---------3---------|-------------7---------3-------------------|
A|--5-----------------------------|----5--------------------------------------|
E|--------------------------------|-------------------------------------------|

    Dm        G         A#            Dm        G         A#
e|--------------------------------|-------------------------------------------|
B|--------------------------------|-------------------------------------------|
G|--------------------------------|-------------------------------------------|
D|------------7---------10--------|-------------7---------3-------------------|
A|--5-----------------------------|----5--------------------------------------|
E|--------------------------------|-------------------------------------------|

Dm    G     A#  
Noszę dumnie polskie barwy,
Dm    G     A#  
Jak rycerze, jak żołnierze
Dm     G    A#  
Jak potrzeba jestem hardy
Dm     G     A#  
Tylko, tylko w Polskę wierzę

[Chorus]

Dm        F     C   A# 
Urodziłem się w Polsce 
Dm        F     C   A# 
Urodziłem się w Polsce
Dm        F     C   A# 
Urodziłem się w Polsce
Dm        F     C   A# 
Urodziłem się w Polsce

Dm        F     C   A# 
Urodziłem się w Polsce 
Dm        F     C   A# 
Urodziłem się w Polsce
Dm        F     C   A# 
Urodziłem się w Polsce
Dm        F     C   Dm 
Urodziłem się w Polsce

[Outro]

    Dm        G         A#            Dm        G         A#
e|--------------------------------|-------------------------------------------|
B|--------------------------------|-------------------------------------------|
G|--------------------------------|-------------------------------------------|
D|------------7---------3---------|-------------7---------3-------------------|
A|--5-----------------------------|----5--------------------------------------|
E|--------------------------------|-------------------------------------------|

    Dm        G         A#            Dm        G         A#
e|--------------------------------|-------------------------------------------|
B|--------------------------------|-------------------------------------------|
G|--------------------------------|-------------------------------------------|
D|------------7---------10--------|-------------7---------3-------------------|
A|--5-----------------------------|----5--------------------------------------|
E|--------------------------------|-------------------------------------------|


All the chords are playable as power chords, 
during the verse you can play just the first note of the power chord,
the F is played x91010xx but it sounds ok as 133xxx too.
Suggest correction
Give kudos to tab author, rate the tab!
1 2 3 4 5
comments
print report bad tab
guest
You may want to rate the tab now too:
select rating
Wanna post a correction for this tab? Suggest correction